PrimaNota.ru - самый крупный в мире бесплатный архив песенных текстов, аккордов, табулатур и нот


Babyshambles - Their Way - аккорды и текст, таба, видео

Регистрация Запомнить меня
Войти через:  Facebook Google Twitter Vk Yandex Mail.ru

Babyshambles - Their Way - аккорды и текст, таба, видео

Печатать
Просмотров: 121
Their Way
Babyshambles
Intro - A, F#m, D, E

A
   Their way
F#m
   Forces your hand
D
   There was no way to tell you
         E
I just hoped you'd understand
A
  I was waiting for you
F#m
   Alone with that boy
D
   He needed a sympathy
            E
He just didn't want to have to say why


E             C#m                G#
This way I'll always be (for you)
             B                                  E
And to see you now and help me on
                        C#m                    G#
You know they like to knock me down
      B                                      A
But I don't stay down for very long


A                                  F#m
   I couldn't win but           I could lose
D                                                  E
   And so the time had come and I knew I'd have to choose
             A             F#m
But that kiss,           I take to the end
D                                   E
   Until the next time      I get to see you again


E           C#m                  G#
This way I'll always be for you
          B                                      E
And to know you now will see me through
                  C#m                     G#
(Away) you know I knew you there
        B                                       E
And to see you know and help me on
                       C#m                   G#
You know they like to knock me down
        B                                 E
But I don't stay down for very long
                 C#m                     G#
They try to sing their wayward song
      B                      A
But oh what a way I found


E           C#m                  G#
This way I'll always be for you
           B                                    E
And to know you now will see me through
                 C#m                   G#
(Away) you know I knew you there
          B                        E
I don't stay down for very long
                       C#m                   G#
You know they like to knock me down
        B                                 E
But I don't stay down for very long
                   C#m                     G#
They tried to say their wayward song
       B                        A
But oh what a way I've found

Outro - F#m, D, E, A

Extras:
Solo

E ---------------------------------------------------------------------|
-----------------------------------------------------------------------|
-9--11--14--11--9--11--14--11--9---------------------------------------|
----------------------------------------------10--10--12--14-----------|
-----------------------------------------------------------------------|
E ---------------------------------------------------------------------|

E ---------------------------------------------------------------------|
-------------------13--13--12--10-------9------------------------------|
------------------------------------------9------9--------11-----------|
--12--10---------------------------------------------12----12----------|
-------------12--------------------------------------------------------|
E ---------------------------------------------------------------------|


"I'm not a cretin, I might be a fool but I'm not a fucker. I'm not going to fuck anybody over".


Loads of love

     Lilian Miley
Добавлено: 22.04.2012
Другие материалы по этой песне:
  • Аккорды и текст

Страница создана 22.04.2012
http://primanota.ru/babyshambles/their-way-chords.htm
Привет, Гость.
Предлагаем пройти революционный курс по гитаре.
Подарок от PrimaNota.Ru, забирай!