PrimaNota.ru - самый крупный в мире бесплатный архив песенных текстов, аккордов, табулатур и нот


Babymetal - Akumu No Rondo - таба, видео

Регистрация Запомнить меня
Войти через:  Facebook Google Twitter Vk Yandex Mail.ru

Babymetal - Akumu No Rondo - таба, видео

Печатать
Просмотров: 262
-------------------------------------------------------------------------------
      Babymetal - Akumu No Rinbukyoku/Akumu No Rondo/Rondo of Nightmare
-------------------------------------------------------------------------------
Tabbed by: Andre Oksnes
Tuning: A# Standard tuning (A#-D#-G#-C#-F-A#) HEAVY GAUGE STRINGS RECOMMENDED! (or a 7-string)


************************************

| *   Pinch Harmonic
| /   slide up
| \   slide down
| h   hammer-on
| x   Mute note
| b   Bend

************************************

INTRO

Git.1
e|--------------------------------------------------------|
B|--------------------------------------------------------|
G|--------------------------------------------------------|
D|--------------------------------------------------------|
A|-5\-----------------------------------------------------|
E|-----1-1--1-1---4-4-4--5-0-0-0--0-0--0-0--0-0--0--------|
       x x  x x   x x x  x x x x  x x  x x  x x  x

e|------------------------------------------------------------|
B|------------------------------------------------------------|
G|-------------------------------------------------------8h9--|
D|--------------------------------------------------9h10------|
A|-5\---------------------------------------------------------|
E|-----1-1--1-1---4-4-4--5-0-0-0--0-0--0-0--0-0--0------------|
       x x  x x   x x x  x x x x  x x  x x  x x  x

e|--------------------------------------------------------|
B|--------------------------------------------------------|
G|--------------------------------------------------------|
D|--------------------------------------------------------|
A|-5\-----------------------------------------------------|
E|-----1-1--1-1---4-4-4--5-0-0-0--0-0--0-0--0-0--0--------|
       x x  x x   x x x  x x x x  x x  x x  x x  x

e|------------------------------------------------------------|
B|------------------------------------------------------------|
G|-------------------------------------------------------8h9--|
D|--------------------------------------------------9h10------|
A|-5\---------------------------------------------------------|
E|-----1-1--1-1---4-4-4--5-0-0-0--0-0--0-0--0-0--0------------|
       x x  x x   x x x  x x x x  x x  x x  x x  x

e|--------------------------------------------------------|
B|--------------------------------------------------------|
G|--------------------------------------------------------|
D|--------------------------------------------------------|
A|-5\-----------------------------------------------------|
E|-----1-1--1-1---4-4-4--5-0-0-0--0-0--0-0--0-0--0--------|
       x x  x x   x x x  x x x x  x x  x x  x x  x

e|------------------------------------------------------------|
B|------------------------------------------------------------|
G|-------------------------------------------------------8h9--|
D|--------------------------------------------------9h10------|
A|-5\---------------------------------------------------------|
E|-----1-1--1-1---4-4-4--5-0-0-0--0-0--0-0--0-0--0------------|
       x x  x x   x x x  x x x x  x x  x x  x x  x

e|--------------------------------------------------------|
B|--------------------------------------------------------|
G|--------------------------------------------------------|
D|--------------------------------------------------------|
A|-5\-----------------------------------------------------|
E|-----1-1--1-1---4-4-4--5-0-0-0--0-0--0-0--0-0--0--------|
       x x  x x   x x x  x x x x  x x  x x  x x  x

e|------------------------------------------------------------|
B|------------------------------------------------------------|
G|-------------------------------------------------------8h9--|
D|--------------------------------------------------9h10------|
A|-5\---------------------------------------------------------|
E|-----1-1--1-1---4-4-4--5-0-0-0--0-0--0-0--0-0--0------------|
       x x  x x   x x x  x x x x  x x  x x  x x  x


Git. 2
e|--------------------------------------------------------|
B|--------------------------------------------------------|
G|--------------------------------------------------------|
D|--------------------------------------------------------|
A|-5\-----------------------------------------------------|
E|-----1-1--1-1---4-4-4--5-0-0-0--0-0--0-0--0-0--0--------|
       x x  x x   x x x  x x x x  x x  x x  x x  x

e|--------------------------------------------------------------|
B|--------------------------------------------------------------|
G|--------------------------------------------------------------|
D|-------------------------------------------------------8h9----|
A|-5\-----------------------------------------------9h10--------|
E|-----1-1--1-1---4-4-4--5-0-0-0--0-0--0-0--0-0--0--------------|
       x x  x x   x x x  x x x x  x x  x x  x x  x

e|--------------------------------------------------------|
B|--------------------------------------------------------|
G|--------------------------------------------------------|
D|--------------------------------------------------------|
A|-5\-----------------------------------------------------|
E|-----1-1--1-1---4-4-4--5-0-0-0--0-0--0-0--0-0--0--------|
       x x  x x   x x x  x x x x  x x  x x  x x  x

e|--------------------------------------------------------------|
B|--------------------------------------------------------------|
G|--------------------------------------------------------------|
D|-------------------------------------------------------8h9----|
A|-5\-----------------------------------------------9h10--------|
E|-----1-1--1-1---4-4-4--5-0-0-0--0-0--0-0--0-0--0--------------|
       x x  x x   x x x  x x x x  x x  x x  x x  x

e|--------------------------------------------------------|
B|--------------------------------------------------------|
G|--------------------------------------------------------|
D|--------------------------------------------------------|
A|-5\-----------------------------------------------------|
E|-----1-1--1-1---4-4-4--5-0-0-0--0-0--0-0--0-0--0--------|
       x x  x x   x x x  x x x x  x x  x x  x x  x

e|--------------------------------------------------------------|
B|--------------------------------------------------------------|
G|--------------------------------------------------------------|
D|-------------------------------------------------------8h9----|
A|-5\-----------------------------------------------9h10--------|
E|-----1-1--1-1---4-4-4--5-0-0-0--0-0--0-0--0-0--0--------------|
       x x  x x   x x x  x x x x  x x  x x  x x  x

e|--------------------------------------------------------|
B|--------------------------------------------------------|
G|--------------------------------------------------------|
D|--------------------------------------------------------|
A|-5\-----------------------------------------------------|
E|-----1-1--1-1---4-4-4--5-0-0-0--0-0--0-0--0-0--0--------|
       x x  x x   x x x  x x x x  x x  x x  x x  x

e|--------------------------------------------------------------|
B|--------------------------------------------------------------|
G|--------------------------------------------------------------|
D|-------------------------------------------------------8h9----|
A|-5\-----------------------------------------------9h10--------|
E|-----1-1--1-1---4-4-4--5-0-0-0--0-0--0-0--0-0--0--------------|
       x x  x x   x x x  x x x x  x x  x x  x x  x


Git.3 (at 00:17)
e|---------------------------------7-7-7-7-8-8-8-8-----|
B|---------------------10-10-10-10---------------------|
G|-10-10-10-10-9-9-9-9---------------------------------|
D|-----------------------------------------------------|  X2
A|-----------------------------------------------------|
E|-----------------------------------------------------|

e|---------------------------------12-12-12-12-10-10-10-10-|
B|---------------------10-10-10-10-------------------------|
G|-10-10-10-10-9-9-9-9-------------------------------------|
D|---------------------------------------------------------|
A|---------------------------------------------------------|
E|---------------------------------------------------------|

e|---------------------------------7-7-7-7-8-8-8-8-----|
B|---------------------10-10-10-10---------------------|
G|-10-10-10-10-9-9-9-9---------------------------------|
D|-----------------------------------------------------|  X2
A|-----------------------------------------------------|
E|-----------------------------------------------------|

e|---------------------------------12-12-12-12-12-13-13-12---|
B|---------------------10-10-10-10---------------------------|
G|-10-10-10-10-9-9-9-9---------------------------------------|
D|-----------------------------------------------------------|
A|-----------------------------------------------------------|
E|-----------------------------------------------------------|


Git.1 VERSE
e|--------------------------------------------------|
B|--------------------------------------------------|
G|--------------------------------------------------|
D|--------------------------------------------------|
A|---------5-------------------5--------------------|
E|-0-0-0-0---5-5--2-2--0-0-0-0---0-0--0-0-----------|
   x x x x   x x  x x  x x x x   x x  x x

e|--------------------------------------------------------------------------------------|
B|--------------------------------------------------------------------------------------|
G|--------------------------------------------------------------------------------------|
D|--------------------------------------------------------------------------------------|
A|---------7--------------------7--------------------7--------------------7-------------|
E|-5-5-5-5---7-7--4-4---5-5-5-5---7-7--4-4---5-5-5-5---7-7--4-4---5-5-5-5---7-7--4-4----|
   x x x x   x x  x x   x x x x   x x  x x   x x x x   x x  x x   x x x x   x x  x x

e|--------------------------------------------------------------------------------------|
B|--------------------------------------------------------------------------------------|
G|--------------------------------------------------------------------------------------|
D|--------------------------------------------------------------------------------------|
A|---------8--------------------8--------------------7--------------------7-------------|
E|-5-5-5-5---7-7--4-4---5-5-5-5---7-7--4-4---5-5-5-5---7-7--4-4---5-5-5-5---7-7--4-4----|
   x x x x   x x  x x   x x x x   x x  x x   x x x x   x x  x x   x x x x   x x  x x

e|--------------------------------------------------------------------------------------|
B|--------------------------------------------------------------------------------------|
G|--------------------------------------------------------------------------------------|
D|--------------------------------------------------------------------------------------|
A|---------7--------------------7--------------------7--------------------7-------------|
E|-5-5-5-5---7-7--4-4---5-5-5-5---7-7--4-4---5-5-5-5---7-7--4-4---5-5-5-5---7-7--4-4----|
   x x x x   x x  x x   x x x x   x x  x x   x x x x   x x  x x   x x x x   x x  x x

e|----------------------------------------------------------------------------------------------------------|
B|----------------------------------------------------------------------------------------------------------|
G|----------------------------------------------------------------------------------------------------------|
D|-------------------------------------------------------------------------------------2-killswitch-effect--|
A|---------8--------------------8--------------------7--------------------7------------0-killswitch-effect--|
E|-5-5-5-5---7-7--4-4---5-5-5-5---7-7--4-4---5-5-5-5---7-7--4-4---5-5-5-5---7-7--4-4------------------------|
   x x x x   x x  x x   x x x x   x x  x x   x x x x   x x  x x   x x x x   x x  x x


Git.2 VERSE
e|---------------------------------------------------------|
B|---------------------------------------------------------|
G|-9-LET-IT-RING------9--LET-IT RING------9-LET-IT-RING----|
D|-7-LET-IT-RING------10-LET-IT-RING------9-LET-IT-RING----|
A|-7-LET-IT-RING------7--LET-IT-RING------7-LET-IT-RING----|
E|---------------------------------------------------------|

e|-----------------------------------------------------------------------------|
B|-----------------------------------------------------------------------------|
G|-9-LET-IT-RING------9--LET-IT RING------9-LET-IT-RING------------------------|
D|-7-LET-IT-RING------10-LET-IT-RING------9-LET-IT-RING---2-killswitch-effect--|
A|-7-LET-IT-RING------7--LET-IT-RING------7-LET-IT-RING---0-killswitch effect--|
E|-----------------------------------------------------------------------------|


CHORUS
Both guitars
e|--------------------------------------------------------------------|
B|--------------------------------------------------------------------|
G|--------------------------------------------------------------------|
D|--------------------------------------------------------------------|
A|--7-7--7--7-7---7-7--7--7-7---5-5--5--5-5---5-5--5--5-5-------------|
E|--5-5--5--5-5---4-4--4--4-4---3-3--3--3-3---2-2--2--2-2-------------|

e|--------------------------------------------------------------------|
B|--------------------------------------------------------------------|
G|-----------------------------4-4--4--4-4----------------------------|
D|-----------------------------3-3--3--3-3----------------------------|
A|-3-3--3--3-3---2-2--2--2-2---2-2--2--2-2---2-2--2--2-2---2-2-2-2----|
E|-1-1--1--1-1---0-0--0--0-0-----------------0-0--0--0-0---0-0-0-0----|
                                                           x x x x
e|--------------------------------------------------------------------------|
B|--------------------------------------------------------------------------|
G|--------------------------------------------------------------------------|
D|--------------------------------------------------------------------------|
A|--7-7--7--7-7-7-7---7-7--7--7-7-7-7---5-5--5--5-5-5-5---5-5--5--5-5-5-5---|
E|--5-5--5--5-5-5-5---4-4--4--4-4-4-4---3-3--3--3-3-3-3---2-2--2--2-2-2-2---|

e|-----------------------------------------------------------------------------|
B|-----------------------------------------------------------------------------|
G|------------------------------------4-4--4--4-4-4-4--------------------------|
D|------------------------------------3-3--3--3-3-3-3--------------------------|
A|-3-3--3--3-3-3-3---2-2--2--2-2-2-2--2-2--2--2-2-2-2---6--3--2-----2-2-2-2----|
E|-1-1--1--1-1-1-1---0-0--0--0-0-0-0--------------------4--1--0-----0-0-0-0----|
                                                                    x x x x

INTRO AGAIN (Slightly different ending)
Git.1
e|--------------------------------------------------------|
B|--------------------------------------------------------|
G|--------------------------------------------------------|
D|--------------------------------------------------------|
A|-5\-----------------------------------------------------|
E|-----1-1--1-1---4-4-4--5-0-0-0--0-0--0-0--0-0--0--------|
       x x  x x   x x x  x x x x  x x  x x  x x  x

e|------------------------------------------------------------|
B|------------------------------------------------------------|
G|-------------------------------------------------------8h9--|
D|--------------------------------------------------9h10------|
A|-5\---------------------------------------------------------|
E|-----1-1--1-1---4-4-4--5-0-0-0--0-0--0-0--0-0--0------------|
       x x  x x   x x x  x x x x  x x  x x  x x  x

e|--------------------------------------------------------|
B|--------------------------------------------------------|
G|--------------------------------------------------------|
D|--------------------------------------------------------|
A|-5\-----------------------------------------------------|
E|-----1-1--1-1---4-4-4--5-0-0-0--0-0--0-0--0-0--0--------|
       x x  x x   x x x  x x x x  x x  x x  x x  x

e|---------------------------------------------------------------------------------------|
B|---------------------------------------------------------------------------------------|
G|-------------------------------------------------------8h9-----------------------------|
D|--------------------------------------------------9h10---------------------------------|
A|-5\---------------------------------------------------------2-2-2--2-2-2---2-2-2-2-----|
E|-----1-1--1-1---4-4-4--5-0-0-0--0-0--0-0--0-0--0------------0-0-0--0-0-0---0-0-0-0-----|
       x x  x x   x x x  x x x x  x x  x x  x x  x            x x x  x x x   x x x x

Git.2
e|--------------------------------------------------------|
B|--------------------------------------------------------|
G|--------------------------------------------------------|
D|--------------------------------------------------------|
A|-5\-----------------------------------------------------|
E|-----1-1--1-1---4-4-4--5-0-0-0--0-0--0-0--0-0--0--------|
       x x  x x   x x x  x x x x  x x  x x  x x  x

e|----------------------------------------------------------------|
B|----------------------------------------------------------------|
G|----------------------------------------------------------------|
D|------------------------------------------------------8h9-------|
A|-5\-----------------------------------------------9h10----------|
E|-----1-1--1-1---4-4-4--5-0-0-0--0-0--0-0--0-0--0----------------|
       x x  x x   x x x  x x x x  x x  x x  x x  x

e|--------------------------------------------------------|
B|--------------------------------------------------------|
G|--------------------------------------------------------|
D|--------------------------------------------------------|
A|-5\-----------------------------------------------------|
E|-----1-1--1-1---4-4-4--5-0-0-0--0-0--0-0--0-0--0--------|
       x x  x x   x x x  x x x x  x x  x x  x x  x

e|---------------------------------------------------------------------------------------|
B|---------------------------------------------------------------------------------------|
G|---------------------------------------------------------------------------------------|
D|------------------------------------------------------8h9------------------------------|
A|-5\-----------------------------------------------9h10------2-2-2--2-2-2---2-2-2-2-----|
E|-----1-1--1-1---4-4-4--5-0-0-0--0-0--0-0--0-0--0------------0-0-0--0-0-0---0-0-0-0-----|
       x x  x x   x x x  x x x x  x x  x x  x x  x            x x x  x x x   x x x x

Git.3
e|---------------------------------7-7-7-7-8-8-8-8-----|
B|---------------------10-10-10-10---------------------|
G|-10-10-10-10-9-9-9-9---------------------------------|
D|-----------------------------------------------------|  X2
A|-----------------------------------------------------|
E|-----------------------------------------------------|

e|---------------------------------12-12-12-12-10-10-10-10-|
B|---------------------10-10-10-10-------------------------|
G|-10-10-10-10-9-9-9-9-------------------------------------|
D|---------------------------------------------------------|
A|---------------------------------------------------------|
E|---------------------------------------------------------|

e|---------------------------------7-7-7-7-8-8-8-8-----|
B|---------------------10-10-10-10---------------------|
G|-10-10-10-10-9-9-9-9---------------------------------|
D|-----------------------------------------------------|  X2
A|-----------------------------------------------------|
E|-----------------------------------------------------|

e|---------------------------------12-12-12-12-12-13-13-12---|
B|---------------------10-10-10-10---------------------------|
G|-10-10-10-10-9-9-9-9---------------------------------------|
D|-----------------------------------------------------------|
A|-----------------------------------------------------------|
E|-----------------------------------------------------------|


VERSE 2
Both guitars
e|---------------------------------------------------------------------------------------|
B|---------------------------------------------------------------------------------------|
G|---------------------------------------------------------------------------------------|
D|-2------------2--------2-2-2--------2-2---------2-0------------------------------------|
A|-0--0-0-0-3-3-3--0-0-0-----0--0-0-0-----2-0-0-0--------3-3-3-3-3-3----2-2-2-2-2-2-2----|
E|-------------------------------------------------------1-1-1-1-1-1----0-0-0-0-0-0-0----|
      x x x x x    x x x x x    x x x x x   x x x x x                   x x x x x x x


BREAKDOWN
Both guitars
E|-------------------------------|
B|-------------------------------|
G|-------------------------------|
D|-------------------------------|
A|-2------3-3-3-3-2----2---------|
E|-0------1-1-1-1-0----0---------|
          x x x x

e|-----------------------------------------------------------------------------------------|
B|-----------------------------------------------------------------------------------------|
G|-----------------------------------------------------------------------------------------|
D|-----------------------------------------------------------------------------------------|
A|-----------------------------------------------------------------------------------------|
E|--0-0-0--0---0-0-0--0---0-0-0--0---0-0-0--0---0-0-0--0---0-0-0--0---0-0-0--0---0-0-0--0--|
    x x x  x   x x x  x   x x x  x   x x x  x   x x x  x   x x x  x   x x x  x   x x x  x

e|----------------------------|
B|----------------------------|
G|----------------------------|
D|----------------------------|
A|----------------------------|
E|-1-1-1--1-1---2-2-2--2-2----|
   x x x  x x   x x x  x x

e|-----------------------------------------------------------------------------------------|
B|-----------------------------------------------------------------------------------------|
G|-----------------------------------------------------------------------------------------|
D|-----------------------------------------------------------------------------------------|
A|-----------------------------------------------------------------------------------------|
E|--0-0-0--0---0-0-0--0---0-0-0--0---0-0-0--0---0-0-0--0---0-0-0--0---0-0-0--0---0-0-0--0--|
    x x x  x   x x x  x   x x x  x   x x x  x   x x x  x   x x x  x   x x x  x   x x x  x

Git. 1
e|-----------------------------------|
B|-----------------------------------|
G|--------------6b*------------------|
D|-----------------7b*---------------|
A|-----------------------------------|
E|-0-0-0--0-0------------------------|
   x x x  x x

Git.2
e|-----------------------------------|
B|-----------------------------------|
G|-----------------------------------|
D|--------------7b*------------------|
A|------------------7b*--------------|
E|-0-0-0--0-0------------------------|
   x x x  x x

e|------------------------------------------------------------------------------------|
B|------------------------------------------------------------------------------------|
G|------------------------------------------------------------------------------------|
D|------------------------------------------------------------------------------------|
A|------------------------------------------------------------------------------------|
E|-0-0-0--0--0-0-0--0---0-0-0--0--0-0-0--0---0-0-0--0--0-0-0--0---0-0-0--0--0-0-0--0--|
   x x x  x  x x x  x   x x x  x  x x x  x   x x x  x  x x x  x   x x x  x  x x x  x

e|----------------------------|
B|----------------------------|
G|----------------------------|
D|----------------------------|
A|----------------------------|
E|-1-1-1--1-1---2-2-2--2-2----|
   x x x  x x   x x x  x x

e|------------------------------------------------------------------------------------|
B|------------------------------------------------------------------------------------|
G|------------------------------------------------------------------------------------|
D|------------------------------------------------------------------------------------|
A|------------------------------------------------------------------------------------|
E|-0-0-0--0--0-0-0--0---0-0-0--0--0-0-0--0---0-0-0--0--0-0-0--0---0-0-0--0--0-0-0--0--|
   x x x  x  x x x  x   x x x  x  x x x  x   x x x  x  x x x  x   x x x  x  x x x  x

e|-----------------------------|
B|-----------------------------|
G|-----------------------------|
D|------------2-2-2-2-2-2-2-2--|
A|-----------------------------|
E|-0-0--0-0--------------------|
   x x  x x   x x x x x x x x

LAST CHORUS
e|----------------------------------------------------------|
B|----------------------------------------------------------|
G|----------------------------------------------------------|
D|----------------------------------------------------------|
A|-7-7-7-7-7-7---7-7-7-7-7-7---5-5-5-5-5-5---5-5-5----------|
E|-5-5-5-5-5-5---4-4-4-4-4-4---3-3-3-3-3-3---2-2-2----------|

e|--------------------------------------------------------------------------------|
B|--------------------------------------------------------------------------------|
G|-------------------------------------4-4--4--4-4-4-4----------------------------|
D|-------------------------------------3-3--3--3-3-3-3----------------------------|
A|-3-3--3--3-3-3-3---2-2--2--2-2-2-2---2-2--2--2-2-2-2---2-2--2--2-2---2-2-2-2----|
E|-1-1--1--1-1-1-1---0-0--0--0-0-0-0---------------------0-0--0--0-0---0-0-0-0----|
                                                                       x x x x
e|--------------------------------------------------------------------------|
B|--------------------------------------------------------------------------|
G|--------------------------------------------------------------------------|
D|--------------------------------------------------------------------------|
A|--7-7--7--7-7-7-7---7-7--7--7-7-7-7---5-5--5--5-5-5-5---5-5--5--5-5-5-5---|
E|--5-5--5--5-5-5-5---4-4--4--4-4-4-4---3-3--3--3-3-3-3---2-2--2--2-2-2-2---|

e|------------------------------------------------------------------------------|
B|------------------------------------------------------------------------------|
G|-------------------------------------4-4--4--4-4-4-4--------------------------|
D|-------------------------------------3-3--3--3-3-3-3--------------------------|
A|-3-3--3--3-3-3-3---2-2--2--2-2-2-2---2-2--2--2-2-2-2---6--3--2-----2-2-2-2----|
E|-1-1--1--1-1-1-1---0-0--0--0-0-0-0---------------------4--1--0-----0-0-0-0----|
                                                                     x x x x

INTRO AGAIN (Slightly different ending)
Git.1
e|--------------------------------------------------------|
B|--------------------------------------------------------|
G|--------------------------------------------------------|
D|--------------------------------------------------------|
A|-5\-----------------------------------------------------|
E|-----1-1--1-1---4-4-4--5-0-0-0--0-0--0-0--0-0--0--------|
       x x  x x   x x x  x x x x  x x  x x  x x  x

e|------------------------------------------------------------|
B|------------------------------------------------------------|
G|-------------------------------------------------------8h9--|
D|--------------------------------------------------9h10------|
A|-5\---------------------------------------------------------|
E|-----1-1--1-1---4-4-4--5-0-0-0--0-0--0-0--0-0--0------------|
       x x  x x   x x x  x x x x  x x  x x  x x  x

e|--------------------------------------------------------|
B|--------------------------------------------------------|
G|--------------------------------------------------------|
D|--------------------------------------------------------|
A|-5\-----------------------------------------------------|
E|-----1-1--1-1---4-4-4--5-0-0-0--0-0--0-0--0-0--0--------|
       x x  x x   x x x  x x x x  x x  x x  x x  x

e|---------------------------------------------------------------|
B|---------------------------------------------------------------|
G|---------------------------------------------------------------|
D|---------------------------------------------------------------|
A|-5\------------------------------------------------------------|
E|-----1-1--1-1---4-4-4--5-0-0-0--0-0--0-0--0-0--0--0-0-0-0-0----|
       x x  x x   x x x  x x x x  x x  x x  x x  x  x x x x x

Git.2
e|--------------------------------------------------------|
B|--------------------------------------------------------|
G|--------------------------------------------------------|
D|--------------------------------------------------------|
A|-5\-----------------------------------------------------|
E|-----1-1--1-1---4-4-4--5-0-0-0--0-0--0-0--0-0--0--------|
       x x  x x   x x x  x x x x  x x  x x  x x  x

e|----------------------------------------------------------------|
B|----------------------------------------------------------------|
G|----------------------------------------------------------------|
D|------------------------------------------------------8h9-------|
A|-5\-----------------------------------------------9h10----------|
E|-----1-1--1-1---4-4-4--5-0-0-0--0-0--0-0--0-0--0----------------|
       x x  x x   x x x  x x x x  x x  x x  x x  x

e|--------------------------------------------------------|
B|--------------------------------------------------------|
G|--------------------------------------------------------|
D|--------------------------------------------------------|
A|-5\-----------------------------------------------------|
E|-----1-1--1-1---4-4-4--5-0-0-0--0-0--0-0--0-0--0--------|
       x x  x x   x x x  x x x x  x x  x x  x x  x

e|------------------------------------------------------------|
B|------------------------------------------------------------|
G|------------------------------------------------------------|
D|------------------------------------------------------------|
A|-5\---------------------------------------------------------|
E|-----1-1--1-1---4-4-4--5-0-0-0--0-0--0-0--0-0--0--0-0-0-0---|
       x x  x x   x x x  x x x x  x x  x x  x x  x  x x x x

Git.3
e|---------------------------------7-7-7-7-8-8-8-8-----|
B|---------------------10-10-10-10---------------------|
G|-10-10-10-10-9-9-9-9---------------------------------|
D|-----------------------------------------------------|  X2
A|-----------------------------------------------------|
E|-----------------------------------------------------|

e|---------------------------------12-12-12-12-10-10-10-10-|
B|---------------------10-10-10-10-------------------------|
G|-10-10-10-10-9-9-9-9-------------------------------------|
D|---------------------------------------------------------|
A|---------------------------------------------------------|
E|---------------------------------------------------------|

e|---------------------------------7-7-7-7-8-8-8-8-----|
B|---------------------10-10-10-10---------------------|
G|-10-10-10-10-9-9-9-9---------------------------------|
D|-----------------------------------------------------|  X2
A|-----------------------------------------------------|
E|-----------------------------------------------------|

e|---------------------------------12-12-12-12-12-13-13-13---|
B|---------------------10-10-10-10---------------------------|
G|-10-10-10-10-9-9-9-9---------------------------------------|
D|-----------------------------------------------------------|
A|-----------------------------------------------------------|
E|-----------------------------------------------------------|
Добавлено: 28.06.2015
Другие материалы по этой песне:

Страница создана 28.06.2015
http://primanota.ru/babymetal/akumu-no-rondo-chords.htm
Привет, Гость.
Предлагаем пройти революционный курс по гитаре.
Подарок от PrimaNota.Ru, забирай!