PrimaNota.ru - самый крупный в мире бесплатный архив песенных текстов, аккордов, табулатур и нот


Avril Lavigne - Falling Into History - текст песни, таба, видео

Регистрация Запомнить меня
Войти через:  Facebook Google Twitter Vk Yandex Mail.ru

Avril Lavigne - Falling Into History - текст песни, таба, видео

Печатать
Просмотров: 234
Уроки эстрадного вокала в Санкт-Петербурге


Avril Lavigne
Falling Into History

by Snazz

Note: In the chorus I have referenced some small inputs in parenthesis with
only the needed strings. These are similar to parts of the intro. When you
listen to the song, you'll understand how to play it. Otherwise listen to
the song to hear how the chords are played in the chorus (striking only root
node or full chord).

Capo on 1st Fret

Chord references:
G    - 320033
Asus4- x02230
G/B  - x20003
A/C# - x4222x
D    - xx0232
D/F# - 2x023x
A    - x02220


(Silence in 4 bars of 2/4)

Intro:
e|----------|----------|----------|----------|
B|----3-----|----3---3-|----3-----|----3---3-|
G|---2--2-2-|---2---2--|---2--2-2-|---2---2--|
D|-0-----0--|-2---4----|----------|-----0----|
A|----------|----------|-2-----2--|-4--------|
E|----------|----------|----------|----------|

e|----3-2-0-|----------|----------|----------|
B|----3-3-3-|----3-----|----3-----|----------|
G|---2------|---2--2-2-|---2-2-2--|-----2----|
D|----------|----------|----------|-----2----|
A|----------|-0-----0--|---------0|-0h2-0----|
E|-3--------|----------|-2-----3--|----------|


Verse: (play 2x intro)

Don't matter what people say
I never did believe them
I know, I know they know everything
I'll be alright by myself
And no one's gonna tell me I'm
Defined, confined by love


Bridge:
e|----------|----------|----------|---0------|
B|-----3----|--3-----3-|-----3----|-----3----|
G|----0-0---|---0---0--|-----2----|-------2--|
D|-3------2-|-----2----|-0--------|----------|
A|----------|----------|--------4-|----------|
E|----------|----------|----------|----------|
                         d  u udu   d
e|----------|----------|-0--0-000-|-0--------|
B|----3-----|-3---3-3--|-3--3-333-|-2--------|
G|----2-----|-2--2-2-2-|-2--2-222-|-2--------|
D|-0------0-|----------|-2--2-222-|-2--------|
A|-2------1-|----------|-0--------|-0--------|
E|----------|----------|----------|----------|

Now our days seems strange
I guess my heart was bound to change


Chorus:
          G Asus4          G/B
I fell out, out of you and me
       A/C#   D    G  (eB:33 23 03)
You're fading from view
           Asus4(eB:0- -3)D/F# G
And you're falling into   history
(A:0h2)A       G Asus4          G/B
I fell out, out of you and me
       A/C#   D    G  (eB:33 23 03)
You're fading from view
           Asus4(Be:-0 3-)D/F# G  (A:0h2)A
And you're falling into   history

(Silence i 2 takter af 2/4)


Verse: (play 2x intro)

I never thought that I'd say
That I don't really miss you
I lived, I breathed your breath through me
Time has a way of passing by
Until I don't remember why
Or how to hurt for you


Bridge: (play bridge)

Love's pain has gone somewhere
And I'm fine leaving it there

(Repeat Chorus)

Interlude:
e|-----x--x-|
B|-----2--2-|
G|-----3--3-|
D|-----0--0-|
A|-0h2-x--x-|
E|-----2--2-|
                                                                                 udu  udu
e|-0----0-2-|-2-3--3----|-0----0-2-|-2-3--3---|----------|----------|-3---2----|----------|
B|-3----3-3-|-3-3--3----|-1----3-3-|-3-3--3---|-2--2-2--2|-2--2-2-2-|-3---3-3--|-333--333-|
G|-0--------|-----------|-0--------|----------|-2--2-2--2|-2--2-2-2-|-0-----0--|-000--000-|
D|-2--------|-----------|-2--------|----------|-2--2-2--2|-2--2-2-2-|-2-----2--|-222--222-|
A|-2--------|-----------|-3--------|----------|-4--4-4--4|-4--4-4-4-|-3-----3--|-333--333-|
E|-0--------|-----------|-0--------|----------|----------|----------|----------|----------|

e|-0----0-2-|-2-3--3----|-0----0-2-|-2-3--3---|----------|----------|-3---2----|----------|
B|-3----3-3-|-3-3--3----|-1----3-3-|-3-3--3---|-2--2-2--2|-2--2-2-2-|-3---3-3--|----------|
G|-0--------|-----------|-0--------|----------|-2--2-2--2|-2--2-2-2-|-0-----0--|----------|
D|-2--------|-----------|-2--------|----------|-2--2-2--2|-2--2-2-2-|-2-----2--|----------|
A|-2--------|-----------|-3--------|----------|-4--4-4--4|-4--4-4-4-|-3-----3--|----------|
E|-0--------|-----------|-0--------|----------|----------|----------|----------|----------|

-y-y-y-y
Falling into, falling into, you're falling into history, yeah
Falling into, falling into, you're falling into history

(Silence in 2 bars of 2/4)
(Repeat Intro)
(Repeat Chorus)
(Silence in 2 bars of 2/4)

Outro:
e|----------|----------|----------|----------|
B|-3--3-----|----3---3-|----3-----|----3---3-|
G|-2-2--2-2-|---2---2--|---2--2-2-|---2---2--|
D|-0-----0--|-2---4----|----------|-----0----|
A|----------|----------|-2-----2--|-4--------|
E|----------|----------|----------|----------|

e|----3-2-0-|----------|----------|----------|
B|----3-3-3-|----3-----|----3-----|-----3----|
G|---2------|---2--2-2-|---2-2----|-----2----|
D|----------|----------|----------|-----2----|
A|----------|-0-----0--|----------|-0-2-0----|
E|-3--------|----------|-2-----3--|----------|

I'll be alright by myself
And no one's gonna tell me I'm
Defined, confined by love


Добавлено: 19.01.2014
Другие материалы по этой песне:
  • Аккорды и текст

Страница создана 29.08.2013
http://primanota.ru/avril-lavigne/falling-into-history-chords.htm
Привет, Гость.
Предлагаем пройти революционный курс по гитаре.
Подарок от PrimaNota.Ru, забирай!