PrimaNota.ru - самый крупный в мире бесплатный архив песенных текстов, аккордов, табулатур и нот


Avril Lavigne - Nobodys home1 - таба, видео

Регистрация Запомнить меня
Войти через:  Facebook Google Twitter Vk Yandex Mail.ru

Avril Lavigne - Nobodys home1 - таба, видео

Печатать
Просмотров: 179


			     SONG NAME - Avril Lavigne Nobody's Home
Tabbed by: Ryan

Intro
e|-------------------0-----------------0------------------------------|
B|-------------0-----------------3------------------------1-----------|
G|----------4-----4-----------2----2----------------0-----------------|
D|-------2-----------------0---------------------2-----2--------------|
A|--------------------------------------------3-----------------------|
E|--------------------------------------------------------------------|



e|--------------------------------------------------------------------|
B|----------------1--0------------------------------------------------|
G|---------0----------------------------------------------------------|
D|------2-----2-------------------------------------------------------|
A|---3----------------------------------------------------------------|
E|--------------------------------------------------------------------|


The rest is simply E minor then a D then Cx2 do this three times to the chorus then
Chorus is E minor then a G then a Dx2 repeat throughout
I don't think the strumming changes in the chorus
Piece of piss enjoy   


Добавлено: 22.12.2013
Другие материалы по этой песне:
  • Аккорды и текст

Страница создана 22.12.2013
http://primanota.ru/avril-lavigne/nobodys-home1-chords.htm
Привет, Гость.
Предлагаем пройти революционный курс по гитаре.
Подарок от PrimaNota.Ru, забирай!