PrimaNota.ru - самый крупный в мире бесплатный архив песенных текстов, аккордов, табулатур и нот


Avenged Sevenfold - Doing Time - таба, бас-таба, видео

Регистрация Запомнить меня
Войти через:  Facebook Google Twitter Vk Yandex Mail.ru

Avenged Sevenfold - Doing Time - таба, бас-таба, видео

Печатать
Просмотров: 196
Авторы: Jonathan Seward, Zackary Baker, Brian Haner, Jr., Matthew Charles Sanders

Artist: Avenged Sevenfold
Album: Hail to the King (2013)
Song Title: Doing Time Guitar Solo
No.Track: #4

+++++++++++++++++++++

Guitar Tuning: (D A D G B e )

Legend

b   = Bend
~   = Vibrato short duration
~~  = Vibrato medium duration
~~~ = Vibrato long duration
[]  = Perfect bend or perfect sound
\   = Slide Up
/   = Slide Down
h   = Hammer on
p   = Pull off
 
+++++++++++++++++++++

Solo A:

 Guitar 1:
e|--10b~~-10b~~-10b~~--10b~10b~---12---------12---------12---------12---------12---------|
B|--------------------------------15b[17]~~--15b[17]~~--15b[17]~~--15b[17]~~--15b[17]~~--|
G|---------------------------------------------------------------------------------------|
D|---------------------------------------------------------------------------------------|
A|---------------------------------------------------------------------------------------|
D|---------------------------------------------------------------------------------------|

e|--15---------|----15---------15---------|--18---------|----18--------18--------|
B|--18b[20]~~~-|----18b[20]~~--18b[20]~~--|--21b[23]~~~-|----21[23]~~--21[23]~~--|
G|-------------|--------------------------|-------------|------------------------|
D|-------------|--------------------------|-------------|------------------------|
A|-------------|--------------------------|-------------|------------------------|
D|-------------|--------------------------|-------------|------------------------|


+++++++++++++++++++++

Solo B:

 Guitar 1:
e|--10-----10--------10-----10--------10--------10-----10--------10----------|
B|----11-12--11-12-11--11-12--11-12-11--11-12-11--11-12--11-12-11--11-12/15--|
G|---------------------------------------------------------------------------|
D|---------------------------------------------------------------------------|
A|---------------------------------------------------------------------------|
D|---------------------------------------------------------------------------|

e|--15--17-15-------------------------------15--17-15------------------------|
B|----15-----17-15-----15-17--15--------15----15-----17-15-12----------------|
G|----------------16-15-----16--16-15-16--15-----------------15----------16--|
D|-------------------------------------------------------------17--------17--|
A|---------------------------------------------------------------19-17~------|
D|---------------------------------------------------------------------------|


+++++++++++++++++++++

Solo C:

Guitar 1:

e|---------------|--------------7~~~-|--------------------6~~-|----------15~~~--|
B|-------------8-|--10-8--10~~~-8~~~-|-------10~~~--10-8--8~~-|--11-10---17~~~--|
G|--9-7--9~~~--9-|-------------------|--9-7---9~~~------------|-----------------|
D|---------------|-------------------|------------------------|-----------------|
A|---------------|-------------------|------------------------|-----------------|
D|---------------|-------------------|------------------------|-----------------|

e|--12----------14----------15-------|
B|--15b[17]-----17b[19]-----18b[20]--|
G|-----------------------------------|
D|-----------------------------------|
A|-----------------------------------|
D|-----------------------------------|

+++++++++++++++++++++

*Words and Music By Avenged Sevenfold

- M.Shadows
- Synyster Gates
- Zacky Vengeance
- Johnny Christ
- Arin Ilejay

+++++++++++++++++++++
Добавлено: 06.11.2013
Другие материалы по этой песне:

Страница создана 11.09.2013
http://primanota.ru/avenged-sevenfold/doing-time-chords.htm
Привет, Гость.
Предлагаем пройти революционный курс по гитаре.
Подарок от PrimaNota.Ru, забирай!