PrimaNota.ru - самый крупный в мире бесплатный архив песенных текстов, аккордов, табулатур и нот


Avenged Sevenfold - Planets - таба, бас-таба, видео

Регистрация Запомнить меня
Войти через:  Facebook Google Twitter Vk Yandex Mail.ru

Avenged Sevenfold - Planets - таба, бас-таба, видео

Печатать
Просмотров: 261
Авторы: Jonathan Seward, Zackary Baker, Brian Haner, Jr., Matthew Charles Sanders

-------------------------------------------------------------------------------
                             Planets - Avenged Sevenfold
-------------------------------------------------------------------------------
Tabbed by: BlackenBlueShit
E-mail: bluesniperdjg@gmail.com

Tuning: D

Riff 1 (Intro; 0:15)

e|----------------------------------------------------------------------------|
B|----------------------------------------------------------------------------|
G|----------------------------------------------------------------------------|
D|----------------------------------------------------------------------------|
A|---04h6h----04h6h----04h6h----04h6h----04h5h~-------------------------------|

D|------------------------------------------------------------------------|

(x12)

Riff 2 (Verse; 0:55)

e|--------------------------------------------------------------------------|
B|--------------------------------------------------------------------------|
G|--------------------------------------------------------------------------|
D|-0-------1-1--------1-1-2--------2-2--------------------------------------|
A|-0-------1-1--------1-1-2--------2-2--------04h6h-------------------------|
D|-0--000--1-1---000--1-1-2---111--2-2--111---------------------------------|
      xxx        xxx          xxx
(x2)

Riff 3 (1:10)
e|--------------------------------------------------------------------------|
B|--------------------------------------------------------------------------|
G|--------------------------------------------------------------------------|
D|-2-------2-2------3-4-2-------2-2-------4-5-------------------------------|
A|-2-------2-2------3-4-2-------2-2-------4-5-------------------------------|
D|-2--222--2-2--22--3-4-2--222--2-2--222--4-5-------------------------------|
      xxx       xx         xxx       xxx
e|----------------------------------------------------------------------------|
B|----------------------------------------------------------------------------|
G|----------------------------------------------------------------------------|
D|-3-------3-3------4-5-3-----3------333-777-4--------------------------------|
A|-3-------3-3------4-5-3-----3------333-777-4--------------------------------|
D|-3--333--3-3--33--4-5-3-333-3--33--333-777-4--------------------------------|

Riff 4 (pre chorus; 1:23)

e|----------------------------------------------------------------------------|
B|----------------------------------------------------------------------------|
G|----------------------------------------------------------------------------|
D|---3333-5555-7777-8888-6666-5555-33333333-----------------------------------|
A|---3333-5555-7777-8888-6666-5555-33333333-----------------------------------|
D|---3333-5555-7777-8888-6666-5555-33333333-----------------------------------|

Riff 5 (Chorus)
e|----------------------------------------------------------------------------|
B|----------------------------------------------------------------------------|
G|----------------------------------------------------------------------------|
D|--0-3-7-4-5-6-7-----3--654-0-3----------------------------------------------|
A|--0-3-7-4-5-6-7-----3--654-0-3----------------------------------------------|
D|--0-3-7-4-5-6-7--0--3--654-0-3----------------------------------------------|
                   x

(2x)

Part 6 (1:51)

e|-------------------------------------------------------------0-15-17-18~--|
B|---------------------------------------------------0-15-17-18-------------|
G|----0-15h-17h~--0-15h-17h~--0-17h-19h~---0-15-17-18-----------------------|
D|--------------------------------------------------------------------------|
A|--------------------------------------------------------------------------|
D|--------------------------------------------------------------------------|

Repeat

Riff 1 (1x)
Riff 2 (1x)
Riff 3 (1x)
Riff 4 (1x)
Riff 5 (1x)

Lead guitar after 2nd chorus (2:56)
e|--------------------------------------------------------------------------|
B|--------------------------------------------------------------------------|
G|-------------------------------------------------/15-17~----19--20--21b~--|
D|---/7---7/9---9/10-------13--14--15-----15-17-------------17--17--17------|
A|-----7~-----9~----10~--10--10--10--13~-------14~--------------------------|
D|--------------------------------------------------------------------------|

 Rhythm during that same part
e|--------------------------------------------------------------------------|
B|--------------------------------------------------------------------------|
G|--------------------------------------------------------------------------|
D|--------------------------------------------------------------------------|
A|--------------------------------------------------------------------------|
D|-000-0-0-0-0-0-0-000-0-0-0-0-0-0-000-0-0-000-0-0-000-0-0-0-0-0-0----------|
   xxx x x x x x x xxx x x x x x x xxx x x xxx x x xxx x x x x x x

(Just listen to how the rhythm goes, and you'll get it)

Riff 6 (3:37)

e|----------------------------------------------------------------------------|
B|----------------------------------------------------------------------------|
G|----------------------------------------------------------------------------|
D|--0-3-7-4------0-3-7-4------0-3-7-4------444--333---------------------------|
A|--0-3-7-4------0-3-7-4------0-3-7-4------444--333---------------------------|
D|--0-3-7-4------0-3-7-4------0-3-7-4------444--333---------------------------|

(Solo)

Lead: sorry, I dont know it yet

Rhythm

e|----------------------------------------------------------------------------|
B|----------------------------------------------------------------------------|
G|----------------------------------------------------------------------------|
D|---2222222222---(0-7-3-4-5-6-5--00000000000000)-----------------------------|
A|---2222222222---(0-7-3-4-5-6-5--00000000000000)---(x4)----------------------|
D|---2222222222---(0-7-3-4-5-6-5--00000000000000)-----------------------------|
                                  xxxxxxxxxxxxxx

Repeat:

Riff 4 (Pre Chorus)
Riff 5 (Chorus)

I havent studied the outro yet, so please bare with me, hope this is all clear enough :) 
You can email me if there's any problems.






      xxx       xx        xxx    xx
************************************

| /   slide up
| \   slide down
| h   hammer-on
| p   pull-off
| ~   vibrato
| +   harmonic
| x   Mute note
| b   Bend
| pb  Pre-bend
| br  Bend release
| pbr Pre-bend release
| brb Bend release bend
Добавлено: 07.10.2013
Другие материалы по этой песне:

Страница создана 27.08.2013
http://primanota.ru/avenged-sevenfold/planets-chords.htm
Привет, Гость.
Предлагаем пройти революционный курс по гитаре.
Подарок от PrimaNota.Ru, забирай!