PrimaNota.ru - самый крупный в мире бесплатный архив песенных текстов, аккордов, табулатур и нот


Avenged Sevenfold - Requiem - таба, бас-таба, видео

Регистрация Запомнить меня
Войти через:  Facebook Google Twitter Vk Yandex Mail.ru

Avenged Sevenfold - Requiem - таба, бас-таба, видео

Печатать
Просмотров: 175
Авторы: Jonathan Seward, Zackary Baker, Brian Haner, Jr., Matthew Charles Sanders

-----------------------------------------------------------------------------
                             Requiem - Avenged Sevenfold
-----------------------------------------------------------------------------
Tabbed by: Emmitt Papadimitriou (The Second Alternation)

This is my first tab.
For a video demonstration of this tab, check out my cover of the song: 
http://www.youtube.com/watch?v=8c7NLDbE6WM. 
Also, check out my band if you like www.youtube.com/thesecondalternation or
www.facebook.com/thesecondalternation. 
Solo will be up soon!

Tuning: Drop C#

Section 1:

Guitar 1

D#|----------------------------------------|
A#|----------------------------------------|
F#|---9-9-9/10--9-9-9/10-12-12-12-12-12-12-|
C#|-0-x-x-x/x-0-x-x-x/x--x--x--x--x--x--x--|
G#|-0-7-7-7/8-0-7-7-7/8--10-10-10-10-10-10-|
C#|-0---------0----------------------------|

D#|---------------------------------------|
A#|---------------------------------------|
F#|--9-9-9/10--9-9-9/10-15-15-15-15-15-15-|
C#|0-x-x-x/x-0-x-x-x/x--x--x--x--x--x--x--|
G#|0-7-7-7/8-0-7-7-7/8--13-13-13-13-13-13-|
C#|0---------0----------------------------|

D#|----------------------------------------|
A#|----------------------------------------|
F#|---9-9-9/10--9-9-9/10-12-12-12-12-12-12-|
C#|-0-x-x-x/x-0-x-x-x/x--x--x--x--x--x--x--|
G#|-0-7-7-7/8-0-7-7-7/8--10-10-10-10-10-10-|
C#|-0---------0----------------------------|

D#|---------------------------------------|
A#|---------------------------------------|
F#|--9-9-9/10--9-9-9/10-15-15-15-15-15-15-|
C#|0-x-x-x/x-0-x-x-x/x--x--x--x--x--x--x--|
G#|0-7-7-7/8-0-7-7-7/8--13-13-13-13-13-13-|
C#|0---------0----------------------------|

Section 2:

Guitar 1

D#|-----------------------------------------|
A#|-----------------------------------------|
F#|-----------------------------------------|
C#|---------------------------------8-8-8-8-|
G#|-0---------0---------0---------0-8-8-8-8-|
C#|-0-0-0-0-0-0-0-0-0-0-0-0-0-0-0-0-8-8-8-8-|

D#|-------------------------------------------|
A#|-------------------------------------------|
F#|-------------------------------------------|
C#|-----------------------------------------6-|
G#|-0---------0---------0---------0---------6-|
C#|-0-0-0-0-0-0-0-0-0-0-0-0-0-0-0-0-0-0-0-0-6-|

D#|-----------------------------------------|
A#|-----------------------------------------|
F#|-----------------------------------------|
C#|---------------------------------8-8-8-8-|
G#|-0---------0---------0---------0-8-8-8-8-|
C#|-0-0-0-0-0-0-0-0-0-0-0-0-0-0-0-0-8-8-8-8-|

D#|-------------------------------------------|
A#|-------------------------------------------|
F#|-------------------------------------------|
C#|-----------------------------------------6-|
G#|-0---------0---------0---------0---------6-|
C#|-0-0-0-0-0-0-0-0-0-0-0-0-0-0-0-0-0-0-0-0-6-|

Guitar 2

D#|-------12----------12----------12----|
A#|----15----15----15----15----15----15-|
F#|-14----------12----------14----------|
C#|-------------------------------------|
G#|-------------------------------------|
C#|-------------------------------------|

D#|-------12----------12----------12----|
A#|----15----15----15----15----15----15-|
F#|-15----------14----------12----------|
C#|-------------------------------------|
G#|-------------------------------------|
C#|-------------------------------------|

D#|-------13----------12----------12----|
A#|----15----15----15----15----15----15-|
F#|-13----------14----------12----------|
C#|-------------------------------------|
G#|-------------------------------------|
C#|-------------------------------------|

D#|-------12----------12----------12----|
A#|----15----15----15----15----15----15-|
F#|-15----------14----------12----------|
C#|-------------------------------------|
G#|-------------------------------------|
C#|-------------------------------------|

D#|-------12----------13----|
A#|----15----15----15----15-|
F#|-14----------13----------|
C#|-------------------------|
G#|-------------------------|
C#|-------------------------|

D#|-------12----------12----------12----|
A#|----15----15----15----15----15----15-|
F#|-14----------12----------14----------|
C#|-------------------------------------|
G#|-------------------------------------|
C#|-------------------------------------|

D#|-------12----------12----------12----|
A#|----15----15----15----15----15----15-|
F#|-15----------14----------12----------|
C#|-------------------------------------|
G#|-------------------------------------|
C#|-------------------------------------|

D#|-------13----------12----------12----|
A#|----15----15----15----15----15----15-|
F#|-13----------14----------12----------|
C#|-------------------------------------|
G#|-------------------------------------|
C#|-------------------------------------|

D#|-------12----------12----------12----|
A#|----15----15----15----15----15----15-|
F#|-15----------14----------12----------|
C#|-------------------------------------|
G#|-------------------------------------|
C#|-------------------------------------|

D#|-------12----------13----|
A#|----15----15----15----15-|
F#|-14----------13----------|
C#|-------------------------|
G#|-------------------------|
C#|-------------------------|

Section 3:

Guitar 1

D#|---------------------------------------------|
A#|---------------------------------------------|
F#|---------------------------------------------|
C#|---------------------------------------------|
G#|-7-6-5-6-7-6-8-6-7-0-0-2-3-0-0-7-6-5-6-7-6-8-|
C#|-7-6-5-6-7-6-8-6-7-0-0-2-3-0-0-7-6-5-6-7-6-8-|

Section 4: 

Guitar 1

D#|----------------------------------------|
A#|----------------------------------------|
F#|---9-9-9/10--9-9-9/10-12-12-12-12-12-12-|
C#|-0-x-x-x/x-0-x-x-x/x--x--x--x--x--x--x--|
G#|-0-7-7-7/8-0-7-7-7/8--10-10-10-10-10-10-|
C#|-0---------0----------------------------|

D#|---------------------------------------|
A#|---------------------------------------|
F#|--9-9-9/10--9-9-9/10-15-15-15-15-15-15-|
C#|0-x-x-x/x-0-x-x-x/x--x--x--x--x--x--x--|
G#|0-7-7-7/8-0-7-7-7/8--13-13-13-13-13-13-|
C#|0---------0----------------------------|

D#|------------------------------------------|
A#|------------------------------------------|
F#|---9-9-9/10--9-9-9/10-12-12-12-12-12-12---|
C#|-0-x-x-x/x-0-x-x-x/x--x--x--x--x--x--x--0-|
G#|-0-7-7-7/8-0-7-7-7/8--10-10-10-10-10-10-0-|
C#|-0---------0----------------------------0-|

Section 2

Section 3

Section 4

Solo

Section 5:

Guitar 1

D#|---------------------------------|
A#|---------------------------------|
F#|---------------------------------|
C#|---------------------------------|
G#|-7-0-2-3-8-7-6-7-0-2-3-8-7-5-7-7-|
C#|-7-0-2-3-8-7-6-7-0-2-3-8-7-5-7-7-|

Section 6:

Guitar 1

D#|--------------------------------------|
A#|--------------------------------------|
F#|---10-10-10-10--9-9-9-9---12-12-12-12-|
C#|-0-x--x--x--x-0-x-x-x-x-0-x--x--x--x--|
G#|-0-8--8--8--8-0-7-7-7-7-0-10-10-10-10-|
C#|-0------------0---------0-------------|

D#|---------------------------------------|
A#|---------------------------------------|
F#|---10-10-10-10--14-14-14/15---9-9-9/12-|
C#|-0-x--x--x--x-0-x-x-x-x-/x--0-x-x-x/x--|
G#|-0-8--8--8--8-0-12-12-12/13-0-7-7-7/10-|
C#|-0------------0-------------0----------|

D#|----------------|
A#|----------------|
F#|---10-9-7-9-7---|
C#|-0-x--x-x-x-x-6-|
G#|-0-8--7-5-7-5-6-|
C#|-0------------6-|

Section 2

Section 3

Section 4

************************************

| /   slide up
| \   slide down
| h   hammer-on
| p   pull-off
| ~   vibrato
| +   harmonic
| x   Mute note
| b   Bend
| pb  Pre-bend
| br  Bend release
| pbr Pre-bend release
| brb Bend release bend

************************************

Добавлено: 13.10.2013
Другие материалы по этой песне:

Страница создана 04.08.2013
http://primanota.ru/avenged-sevenfold/requiem-chords.htm
Привет, Гость.
Предлагаем пройти революционный курс по гитаре.
Подарок от PrimaNota.Ru, забирай!