PrimaNota.ru - самый крупный в мире бесплатный архив песенных текстов, аккордов, табулатур и нот


Avenged Sevenfold - End The Rapture - таба, видео

Регистрация Запомнить меня
Войти через:  Facebook Google Twitter Vk Yandex Mail.ru

Avenged Sevenfold - End The Rapture - таба, видео

Печатать
Просмотров: 182
Lead Guitar.
E-------------------------3---5--3--------------*-----------|
B--3~---3--3--5--6\---/6-------------6----5----6----5-------|
G-------------------------------------------------------5---|
D-----------------------------------------------------------|
A-----------------------------------------------------------|
D-----------------------------------------------------------|

E-------------------------8-10\/10\/10---------------------------------------|
B-3----3--5--6\---5--6-------------------------------------------------------|
G----------------------------------------------------------------------------|
D----------------------------------------------------------------------------|
A-------------------------------------------------------------13h15h1715h17--|
D--------------------------------------15h17-15h17h18-15h17h18---------------|

E---------------------------------------------------------------------------|
B-----------------------------------------------------------/20----/22b-20\-|
G----------------14h15-14h15h17-19\---/19-19-21-22\-/22p17-----17-----------|
D-13h15h17-13h15------------------------------------------------------------|
A---------------------------------------------------------------------------|
D---------------------------------------------------------------------------|

E-18/20/18-1818-1717-1515-1717-1515-1313-15/18-17p15p13----------------------|
B-------------------------------------------------------17p15p13-------------|
G---------------------------------------------------------------12h14/15h17--|
D----------------------------------------------------------------------------|
A----------------------------------------------------------------------------|
D----------------------------------------------------------------------------|

E------------|
B------------|
G------------|
D14/15h17h19-
A------------|
D------------|

Tapping begins:

E-17b-------------------------------------------------------------|
B-----------------------------------------------------------------|
G-----t21p19p17t21p19h17-t19p16h17t19p16h17-t17p14h16t17p14h16h17-|
D-----------------------------------------------------------------|
A-----------------------------------------------------------------|
D-----------------------------------------------------------------|

E--------------------------------------------------------------|
B--------------------------------------------------------------|
G-t17t19p12h14h16t19t17p16p14p12h16t17-t21p14h15h17t19p15h17---|
D--------------------------------------------------------------|
A--------------------------------------------------------------|
D--------------------------------------------------------------|

E-------------------------------------------------t15t17p10h13p12t15p13---|
Bt18p11h15p13t17t18p15p11-t20p17t18p13h15p11t18t20------------------------|
G-------------------------------------------------------------------------|
D-------------------------------------------------------------------------|
A-------------------------------------------------------------------------|
D-------------------------------------------------------------------------|

E-t18p13h15p13t20t18p15-t20p17p15t18p15t20p15-t20p18p15h17p15t10p15h18/22~\-|
B---------------------------------------------------------------------------|
G---------------------------------------------------------------------------|
D---------------------------------------------------------------------------|
A---------------------------------------------------------------------------|
D---------------------------------------------------------------------------|
Добавлено: 25.03.2012
Другие материалы по этой песне:
  • Аккорды и текст

Страница создана 25.03.2012
http://primanota.ru/avenged-sevenfold/end-the-rapture-chords.htm
Привет, Гость.
Предлагаем пройти революционный курс по гитаре.
Подарок от PrimaNota.Ru, забирай!