PrimaNota.ru - самый крупный в мире бесплатный архив песенных текстов, аккордов, табулатур и нот


Avenged Sevenfold - Red Is The New Black - таба, видео

Регистрация Запомнить меня
Войти через:  Facebook Google Twitter Vk Yandex Mail.ru

Avenged Sevenfold - Red Is The New Black - таба, видео

Печатать
Просмотров: 167
Please take my tab down. I was just trying to helpful for those searching the wrong
artist (the actual artist of this song is Funeral for a Friend), but there's just 
constant bitching. I would appreciate it being gone instead.

Thanks.

                        Verse

Guitar 1
|---------------------------------------------------------|
|---------------------------------------------------------|
|---------------------------------------------------------|2x
|---------------------------------------------------------|
|-9-9---11-9--11-9----9-9--12---9-9--12----9-9--11--9-----|
|---------------------------------------------------------|
  * *   *  *   * *    * *  *    * *   *    * *  *   *

|---------------------------------------------------------|
|---------------------------------------------------------|
|-----------------13----------------------13--------------|
|-----------14-----14------------14--------14-------------|2x
|----12---------------------12----------------------------|
|-12----12-----12--------12----12-----12------------------|
Добавлено: 14.06.2012
Другие материалы по этой песне:
  • Аккорды и текст

Страница создана 14.06.2012
http://primanota.ru/avenged-sevenfold/red-is-the-new-black-chords.htm
Привет, Гость.
Предлагаем пройти революционный курс по гитаре.
Подарок от PrimaNota.Ru, забирай!