PrimaNota.ru - самый крупный в мире бесплатный архив песенных текстов, аккордов, табулатур и нот


Atb - 9 Pm - таба, видео

Регистрация Запомнить меня
Войти через:  Facebook Google Twitter Vk Yandex Mail.ru

Atb - 9 Pm - таба, видео

Печатать
Просмотров: 305
Song: 9 PM ( Till I Come )
Artist: ATB
Composer: André Tanneberger

This is a well known "Ibiza Anthem" in the UK by the Electronica Dance DJ
André Tanneberger of ATB  I don't know if this tune is played on a guitar 
or not
but it sounds just like it.

KEY:
* = play stacatto
14 ^ (16) (14) = Bend up to 16th then back down again


Intro

E|--------------------------*----------------------------------*--
B|---*---------------------13---------*--------------------*--13--
G|--14--14-^-(16)--(14)------------10--12-^-(14)--(12)----14------  x2
D|----------------------------------------------------------------
A|----------------------------------------------------------------
E|----------------------------------------------------------------

Main part                  This section is faster than notated
                                     *15 is not picked
E|--------------------------*--*-------------------------
B|---*---------------------13-13-13-15-^-(17)--(15)------
G|--14--14-^-(16)--(14)------------------------------14--
D|-------------------------------------------------------
A|-------------------------------------------------------
E|-------------------------------------------------------

E|------------------------------*----------------------
B|---*----------------------*--13--13-^(14)--(13)------
G|--10--12-^-(14)--(12)----14----------------------12--  Repeat
D|-----------------------------------------------------
A|-----------------------------------------------------
E|-----------------------------------------------------


     
Добавлено: 15.11.2013
Вам также может быть интересно:
Другие материалы по этой песне:
  • Аккорды и текст

Страница создана 15.11.2013
http://primanota.ru/atb/9-pm-chords.htm
Привет, Гость.
Предлагаем пройти революционный курс по гитаре.
Подарок от PrimaNota.Ru, забирай!