PrimaNota.ru - самый крупный в мире бесплатный архив песенных текстов, аккордов, табулатур и нот


Ash - Submission - текст песни, бас-таба, видео

Регистрация Запомнить меня
Войти через:  Facebook Google Twitter Vk Yandex Mail.ru

Ash - Submission - текст песни, бас-таба, видео

Печатать
Просмотров: 146
Submission - Ash

The bass has a distortion/ overdrive, the dirtier the better I think! Enjoy it, its a 
song, and no one else has tabbed it so I thought I'd give it a go. Please rate, and 
on if you prefer timings (Verse 0:14) , how many times its played (x5) or both by 
each section. Thanks!

Verse 0:14
G|------999--------9999-------999-------------|
D|--------------------------------------------|
A|-777------7-77---------777------7-77\\\-----|
E|-----------------------------------------33-| x5

G|------999--------9999-----------------------|
D|--------------------------------------------|
A|-777------7-77------------------------------|
E|---------------------------------------3///-|

G|------999--------9999-------999-------------|
D|--------------------------------------------|
A|-777------7-77---------777------7-77\\\-----|
E|-----------------------------------------33-|x4

Chorus 1:00 x2
G|--------------------------------|
D|------5-------------------------|
A|-777---5-55-5-5-----------------|
E|--------------------3333-555-33-|

G|--------------------------------------|
D|------5-------------------------------|
A|-777---5-55-5-5--------------------5--|
E|--------------------3--4--5--6--7-----|

Verse 1:19
G|------999--------9999-------999-------------|
D|--------------------------------------------|
A|-777------7-77---------777------7-77\\\-----|
E|-----------------------------------------33-| x6

Chorus 1:47 x2
G|--------------------------------|
D|------5-------------------------|
A|-777---5-55-5-5-----------------|
E|--------------------3333-555-33-|

G|--------------------------------------|
D|------5-------------------------------|
A|-777---5-55-5-5--------------------5--|
E|--------------------3--4--5--6--7-----|

Bridge 2:06
Guessing that it mimics the verse, it's not possible to work it out by ear further than 
“B”.
G|----444-----4444----444------------|----444-----4444------------------|
D|-----------------------------------|----------------------------------|
A|-222---2-22------222---2-22--2///5-|-222---2-22------2--3--4--5--7--5-|
E|-----------------------------------|----------------------------------|

Verse 2:15
G|------999--------9999-------999-------------|
D|--------------------------------------------|
A|-777------7-77---------777------7-77\\\-----|
E|-----------------------------------------33-|x3

1 line gap, then chorus!

Chorus 2:34 x4
G|--------------------------------|
D|------5-------------------------|
A|-777---5-55-5-5-----------------|
E|--------------------3333-555-33-|

G|--------------------------------------|
D|------5-------------------------------|
A|-777---5-55-5-5--------------------5--|
E|--------------------3--4--5--6--7-----|

Verse 3:11
G|------999--------9999-------999-------------|
D|--------------------------------------------|
A|-777------7-77---------777------7-77\\\-----|
E|-----------------------------------------33-| x3

G|-----999------9999-----999------------------|
D|--------------------------------------------|
A|-777-----7-77------777-----7-77\\------7\\\-|
E|-----------------------------------3//------|

Enjoy!
Добавлено: 15.06.2012
Другие материалы по этой песне:
  • Аккорды и текст

Страница создана 29.05.2012
http://primanota.ru/ash/submission-chords.htm
Привет, Гость.
Предлагаем пройти революционный курс по гитаре.
Подарок от PrimaNota.Ru, забирай!