PrimaNota.ru - самый крупный в мире бесплатный архив песенных текстов, аккордов, табулатур и нот


Ash - True Love 1980 - аккорды и текст, видео

Регистрация Запомнить меня
Войти через:  Facebook Google Twitter Vk Yandex Mail.ru

Ash - True Love 1980 - аккорды и текст, видео

Печатать
Просмотров: 123
Уроки эстрадного вокала в Санкт-Петербурге
True Love 1980
Ash
-------------------------------------------------------------------------------
                             TRUE LOVE 1980 - Ash
-------------------------------------------------------------------------------

Tabbed by: SnazzMaster
Email: snazzmaster@hotmail.co.uk

Tuning: Standard


C G Am F Dm G

     C
True love
  G             Am
A silver heart upon a chain
   F    Dm
In 1980 was engraved
  G            C
A heart so innocent
  G               Am
Before you knew a world of pain
  F                   Dm
Before you learned to be afraid
    G                      C
And lived through times so cruel
    G              Am
But you can start again
    F                Dm
For what you mean to me
              G
No words they can explain


Dm               G
I've been trying to discover
C                  Am
Something that can last forever
Dm                  G
We're two fools who stand divided
C                Am
You and I should be united
Fm         G
True, true love 


C       G                Am
      I watch you dance across the room
     F                   Dm
Your eyes are closed, so beautiful
       G          C
You're in another place
    G           Am
The music has enraptured you
   F                Dm
So free of cares, I wish that you
      G                C
Could always feel this way
   G             Am
Oh we can start again
    F                Dm
For what you mean to me
           G
I'll never walk away


Dm               G
I've been trying to discover
C                  Am
Something that can last forever
Dm                  G
We're two fools who stand divided
C                Am
You and I should be united
Dm                 G
Don't be scared of your emotions
C               Am
I will give you my devotion
Fm         G
True, true love


C     G              Am
      A silver heart upon a chain
   F    Dm
In 1980 was engraved
  G            C
A heart so innocent
     G              Am
Yeah we can start again
    F                Dm
For what you mean to me
           G
No one can take your place


Dm               G
I've been trying to discover
C                  Am
Something that can last forever
Dm                  G
We're two fools who stand divided
C                Am
You and I should be united
Dm                 G
Don't be scared of your emotions
C               Am
I will give you my devotion
Fm         G
True, true love


C G Am F x4

Solo (with some sort of phaser effect on)

e|-------15--------------------15--------|
B|-17\-------17\----18---17\--------17\--|
G|---------------------------------------|
D|---------------------------------------|
A|---------------------------------------|
E|---------------------------------------|

e|-----------15--------------------------|
B|-18--17\-------17h18--17\--------------|
G|---------------------------------------|
D|---------------------------------------|
A|---------------------------------------|
E|---------------------------------------|

e|-----------15--------------------------|
B|-18--17\-------17h18--17\---13--15--13-|
G|---------------------------------------|
D|---------------------------------------|
A|---------------------------------------|
E|---------------------------------------|


End on C

Please rate :D
Добавлено: 05.06.2012
Другие материалы по этой песне:
  • Аккорды и текст

Страница создана 05.06.2012
http://primanota.ru/ash/true-love-1980-chords.htm
Привет, Гость.
Предлагаем пройти революционный курс по гитаре.
Подарок от PrimaNota.Ru, забирай!