PrimaNota.ru - самый крупный в мире бесплатный архив песенных текстов, аккордов, табулатур и нот


Ash - Only In Dreams - аккорды и текст, видео

Регистрация Запомнить меня
Войти через:  Facebook Google Twitter Vk Yandex Mail.ru

Ash - Only In Dreams - аккорды и текст, видео

Печатать
Просмотров: 134
Авторы музыки: Rivers Cuomo
Авторы текста: Rivers Cuomo
Only In Dreams
Ash
band : Ash
song : only in dreams
album : (b-side on "burn baby burn" sp Australia)
tabbed by Al  alex_tees@hotmail.com>

Normal tunning E A D G B e
2 gtrs (2nd guitar picks note over the top)


INTRO / VERSE
bass lick
|------------------------------------------------------|
|------------------------------------------------------|
|------------7-7-7-7-7----------5-5-5-5-5-3-3-3-3-3--|
|--7-7-7-7-7----------5-5-5-5-5-----------------------|(or something like 
that)

gtr 1(acoustic/clean)
|--0-----0-----0-----0---0--|
|--0-----0-----0-----0---0--|
|--0-----9-----0-----7---5--|
|--9-----9-----7-----7---5--|
|--9-----7-----7-----5---3--|
|--7-----X-----5-----X---X--|(chords only, not exact strumming)



CHORUS
|--------------------------------------|---------------------|-----------|
|--------------------------------------|---------------------|-----------|
|--------------------------------------|--5---------7--------|--then-----|
|--9----7----5------10----9-----7------|--5----7----7----9---|--repeat---|
|--9----7----5------10----9-----7------|--3----7----5----9---|--1st bar--|
|--7----5----3------8-----7-----5--x2--|-------5---------7---|----------|

BRIDGE
|-----------------------|
|-----------------------|
|-------9---------7--5--|
|--9----9----7----7--5--|
|--9----7----7----5--3--|
|--7---------5-----------|

solo just muck about with notes.....too much work...do it your selves!!
     
Добавлено: 05.11.2013
Другие материалы по этой песне:
  • Аккорды и текст

Страница создана 01.03.2012
http://primanota.ru/ash/only-in-dreams-chords.htm
Привет, Гость.
Предлагаем пройти революционный курс по гитаре.
Подарок от PrimaNota.Ru, забирай!