PrimaNota.ru - самый крупный в мире бесплатный архив песенных текстов, аккордов, табулатур и нот


Ash - Projects - текст песни, таба, видео

Регистрация Запомнить меня
Войти через:  Facebook Google Twitter Vk Yandex Mail.ru

Ash - Projects - текст песни, таба, видео

Печатать
Просмотров: 120
Авторы музыки: Tim Wheeler, Charlotte Hatherley

PROJECTS
BY ASH
FROM THE ALBUM NU-CLEAR SOUNDS
1998
-------------------------------
Tabbed by AAuuddee@aol.com


INTRO:

Guitar1:
---------------------------
--10h11--10--10--10h11p10--repeat
---------------------------
---------------------------
---------------------------
---------------------------

Guitar2: comes later
 A#5  A5  D5   C5
-------------------
-------------------
-------------------repeat
--8---7---12---10--
--8---7---12---10--
--6---5---10---8---

Guitar3: comes later
----------------------------------------
----------------------------------------
----------------------------------------
--8--8--8--7--7--7--8--7--8--10--10--7--repeat
----------------------------------------
----------------------------------------


VERSE1: same as the intro


CHORUS:

Guitar1:
----------------------------------
--9--9--10--9-repeat------9h10p9--
---------------------9--9---------x2
----------------------------------
----------------------------------
----------------------------------

Guitar2:
  E5  Eb5 Ab5 A5  D5  Db5 A5
-----------------------------
-----------------------------
--9---8-----------7---6------
--9---8---6---7---7---6---7--repeat
--7---6---6---7---5---4---7--
----------4---5-----------5--


VERSE2:same as verse1


CHORUS


SOLO:

Guitar1:let ring
-----------------------------------------------------------
-----------------------------------------------------------
--s14--15--15--15--14--15s17--17b19--17b19--19p17--15--17--
-----------------------------------------------------------
-----------------------------------------------------------
-----------------------------------------------------------

---------------------------------------------------------
------------------------------------16s18--16------------
--17b19--17b19--14--14--14--15--15------------19--17p15--
---------------------------------------------------------
---------------------------------------------------------
---------------------------------------------------------

--------------------------------18s20--20--20--18s20--20--18~--
---------------------------------------------------------------
--19b20r19--17--17~--15~repeat---------------------------------
---------------------------------------------------------------
---------------------------------------------------------------
---------------------------------------------------------------

Guitar2:
 A#5  A5  D5   C5
-------------------
-------------------
-------------------repeat
--8---7---12---10--
--8---7---12---10--
--6---5---10---8---


CHORUS


BRIDGE:let ring
------------------------------------------------------
------------------------------------------------------
--8--7--8--10--8--7--5--7--8--10--8--10--s14--15--14--
------------------------------------------------------
------------------------------------------------------
------------------------------------------------------
I know there's a 2nd guitar here but as I couldn't really=20
hear what was played,I haven't tabbed it!sorry about that!


VERSE3:same as the other verses


END ON A#5


ENJOY!!
To see a list of my tabs,please visit my website:
www.multimania.com/aauuddee
     
Добавлено: 18.08.2013
Другие материалы по этой песне:
  • Аккорды и текст

Страница создана 29.07.2012
http://primanota.ru/ash/projects-chords.htm
Привет, Гость.
Предлагаем пройти революционный курс по гитаре.
Подарок от PrimaNota.Ru, забирай!