PrimaNota.ru - самый крупный в мире бесплатный архив песенных текстов, аккордов, табулатур и нот


As Blood Runs Black - Open Your Mind - таба, видео

Регистрация Запомнить меня
Войти через:  Facebook Google Twitter Vk Yandex Mail.ru

As Blood Runs Black - Open Your Mind - таба, видео

Печатать
Просмотров: 112
Tuning - CGCFAD

* - pinch harmonic
/ - slide up
\ - slide down
~ - ring out
. - palm mute

Intro: 1x
D||-----------------------------------------|
A||-----------------------------------------|
F||-----------------------------------------|
C||---0~----0~----0~----0~------------------|
G||---0~----0~----0~----0~-----8/-8/--------|
C||---0~----0~----0~----0~----8/-8/---------|
PM| 

Riff 1: 1x
D||-----------------------------------------------------|
A||-----------------------------------------------------|
F||------12h13p12-10h12p10-9h10p9-7p9h7-6h7p6-5h7p5-3---|
C||-----------------------------------------------------|
G||-----------------------------------------------------|
C||--0-0------------------------------------------------|
PM|  . .

D||-----------------------------------------------------|
A||------------------14-15h17p15------------------------|
F||------14h15-18-19-------------12h13p12-10h12p10-7----|
C||-----------------------------------------------------|
G||-----------------------------------------------------|
C||--0-0------------------------------------------------|
PM|  . .

Riff 2: 1x
D||------------------------------------------|
A||------------------------------------------|
F||------------------------------------------|
C||------------------------------------------|
G||--------0~-88888888---------0~-44444444---|
C||--0000000~------------0000000~------------|
PM|  ......              ......

D||--------------------------------------------------|
A||--------------------------------------------------|
F||--------------------------------------------------|
C||--------------------------------------------------|
G||--------0~-11111111---------0~-1010101010101010---|
C||--0000000~------------0000000~--------------------|
PM|  ......              ......

Breakdown 1:
D||---------------------------------------------------------------------|
A||---------------------------------------------------------------------|
F||---------------------------------------------------------------------|
C||---------------------------------------------------------------------|
G||--0-0-000--00000-0-0-000-0-0-000-0-0-000-000-8888777710101010881010--|
C||--0-0-000--00000-0-0-000-0-0-000-0-0-000-000-------------------------|
PM|  . . ...  ..... . . ... . . ... . . ... ...
D||----------------------------------------------------------|
A||----------------------------------------------------------|
F||----------------------------------------------------------|
C||----------------------------------------------------------|
G||--0-0-000--00000-0-0-000-0-0-000-0-0-000-000------8*------|
C||--0-0-000--00000-0-0-000-0-0-000-0-0-000-000-8877---------|
PM|  . . ...  ..... . . ... . . ... . . ... ... 

D||----------------------------------------------------------|
A||----------------------------------------------------------|
F||----------------------------------------------------------|
C||----------------------------------------------------------|
G||--0-0-000--00000-0-0-000-0-0-000-0-0-000-000-87578-7h8----|
C||--0-0-000--00000-0-0-000-0-0-000-0-0-000-000-87578-7h8----|
PM|  . . ...  ..... . . ... . . ... . . ... ... ..... 

D||-------------------------------------------------------------|
A||-------------------------------------------------------------|
F||-------------------------------------------------------------|
C||-------------------------------------------------------------|
G||--0-0-000--00000-0-0-000-0-0-000-0-0-000-000------8*--0~-----|
C||--0-0-000--00000-0-0-000-0-0-000-0-0-000-000-8877-----0~--0--|
PM|  . . ...  ..... . . ... . . ... . . ... ...              .

Riff 3: 8x
D||-----------------------------------|
A||-----------------------------------|
F||-----------------------------------|
C||-----------------------------------|
G||-----5---8p5----5---8---7---5h7----|
C||--00---0-----00---0---0---0--------|
PM|  ..   .     ..   .   .   .

Riff 3 harmony: 8x
D||--------------------------------------|
A||--------------------------------------|
F||--------------------------------------|
C||--------------------------------------|
G||-----8---12p8---8---12---10---8h10----|
C||--00---0------0---0----0----0---------|
PM|  ..   .      .   .    .    .

Back to Riff 3: 8x
D||----------------------------------|
A||----------------------------------|
F||----------------------------------|
C||----------------------------------|
G||-----5---8p5----5---8---7---5h7---|
C||--00---0-----00---0---0---0-------|
PM|  ..   .     ..   .   .   .

Breakdown 2: 4x after build-up
D||--------------------------------------------------------|
A||--------------------------------------------------------|
F||--------------------------------------------------------|
C||--------------------------------------------------------|
G||--------------------------------------------------------|
C||--0000-000-000--000-000--------0000-000-000--000-000----|
PM|  .... ... ...  ... ...        .... ... ...  ... ...

Riff 4: 1x
D||-------------------------------------------------------------------|
A||-------------------------------------------------------------------|
F||-------------------------------------------------------------------|
C||-------------------------------------------------------------------|
G||--8888888888885555777788887777--88888888888877778888101010108888---|
C||-0-----------------------------0-----------------------------------|
PM|

D||--------------------------------------------------------|
A||--------------------------------------------------------|
F||--------------------------------------------------------|
C||--------------------------------------------------------|
G||--777788--7777888877775555--444455--4444555577775555----|
C||-8-------8-----------------7-------7--------------------|
PM|

Riff 4 2nd time: 1x
D||----------------------------------------------------------|
A||----------------------------------------------------------|
F||----------------------------------------------------------|
C||----------------------------------------------------------|
G||--1212121212121212121212128888101010101212121210101010----|
C||-0--------------------------------------------------------|
PM|

D||-------------------------------------------------------------|
A||-------------------------------------------------------------|
F||-------------------------------------------------------------|
C||-------------------------------------------------------------|
G||--12121212121212121212121210101010121212121313131312121212---|
C||-0-----------------------------------------------------------|
PM|

D||--------------------------------------------------------|
A||--------------------------------------------------------|
F||--------------------------------------------------------|
C||--------------------------------------------------------|
G||--777788--7777888877775555--444455--4444555577775555----|
C||-8-------8-----------------7-------7--------------------|
PM|

Intro to Breakdown 3: 2x
D||----------------------------------------------------|
A||----------------------------------------------------|
F||----------------------------------------------------|
C||----------------------------------------------------|
G||-0-0-0--00000-0-0--00000000-0-0-0--00000-0-0--------|
C||-0-0-0--00000-0-0--00000000-0-0-0--00000-0-0--1-1---|
PM| . . .  ..... . .  ........ . . .  ..... . .

Breakdown 3: 4x
D||-----------------------------------------------|
A||-----------------------------------------------|
F||-----------------------------------------------|
C||-----------------------------------------------|
G||-0-0-0--00000-0-0--------0-0-0--00000-0-0------|
C||-0-0-0--00000-0-0--------0-0-0--00000-0-0------|
PM| . . .  ..... . .        . . .  ..... . .

at end of 2nd time:
D||------|
A||------|
F||------|
C||------|
G||------|
C||-1-1--|
PM|

Riff 5: 6x
D||----------------------------------------------------------|
A||----------------------------------------------------------|
F||----------------------------------------------------------|
C||----------------------------------------------------------|
G||---10h12---10p8---10h12---10p8---7h8---7p5---8h10---8p7---|
C||-00------00-----00------00-----00----00----00-----00------|
PM| ..      ..     ..      ..     ..    ..    ..     .. 

Riff 6: 4x
D||----------------------------------------------------------|
A||----------------------------------------------------------|
F||----------------------------------------------------------|
C||--------------777788887777---------------------------7*---|
G||--555577778888------------8888---55557777888877775555-----|
C||-0------------------------------8-------------------------|
PM|


Thanks!..

email me at hi_my_name_is_travis@yahoo.com if you think something is wrong with it.

/peace\
Добавлено: 07.07.2012
Вам также может быть интересно:
Другие материалы по этой песне:
  • Аккорды и текст

Страница создана 07.07.2012
http://primanota.ru/as-blood-runs-black/open-your-mind-chords.htm
Привет, Гость.
Предлагаем пройти революционный курс по гитаре.
Подарок от PrimaNota.Ru, забирай!