PrimaNota.ru - самый крупный в мире бесплатный архив песенных текстов, аккордов, табулатур и нот


Arctic Monkeys - R U Mine Live - таба, видео

Регистрация Запомнить меня
Войти через:  Facebook Google Twitter Vk Yandex Mail.ru

Arctic Monkeys - R U Mine Live - таба, видео

Печатать
Просмотров: 631
Artist: Arctic Monkeys
Song: R U Mine (Live)
After watching a few live performances of the Monkeys playing this song I've
figured out how they play it live..

Intro
e|------------|
B|------------|
G|------------|
D|------------|
A|------------|
E|----2b------|


e|-----------------------------------------------------|
B|-----------------------------------------------------|
G|-----------------------------------------------------|
D|-----------------------------------------------------|
A|--------------------5-5-5-4-2s14---------------------|
E|----2-2-2--7h9-7h9-----------------------------------|


Verse
e|-----------------------------------------------------|
B|-----------------------------------------------------|
G|-----------------------------------------------------|
D|-------------------7---------------------------------|
A|---------------7h9---9-7--5-5-5-4-2-2-2--------------|
E|----2-2-2--7h9---------------------------------------|


Chorus
e|-----------------------------------------------------------------------------------|
B|-----------------------------------------------------------------------------------|
G|-----------------------------------------------------------------------------------|
D|-----------------------------------------------------------------------------------|
A|--------5-5-5-4-2-2-2---------5-5-5-4-2-2-2----------5-5-5-4-2-2-2-----------------|
E|--2-2-2-----------------2-2-2----------------2-2-2-2b------------------------------|

e|-------------------------------------------------------|
B|-------------------------------------------------------|
G|-------------------------------------------------------|
D|-------------------------------------------------------|
A|-------------7h9---7h9----5-5-5-4-2-0------------------|
E|--2-2-2--7h9----7h9---7h9-------------2-2-2------------|


Verse
e|-------------------------------------------------------|
B|-------------------------------------------------------|
G|-------------------------------------------------------|
D|-------------------7-----------------------------------|
A|---------------7h9---9-7--5-5-5-4-2-2-2----------------|
E|----2-2-2--7h9-----------------------------------------|


Chorus
e|-----------------------------------------------------------------------------------|
B|-----------------------------------------------------------------------------------|
G|-----------------------------------------------------------------------------------|
D|-----------------------------------------------------------------------------------|
A|--------5-5-5-4-2-2-2---------5-5-5-4-2-2-2----------5-5-5-4-2-2-2-----------------|
E|--2-2-2-----------------2-2-2----------------2-2-2-2b------------------------------|

e|-------------------------------------------------------|
B|-------------------------------------------------------|
G|-------------------------------------------------------|
D|-------------------------------------------------------|
A|-------------7h9---7h9----5-5-5-4-7--------------------|
E|--2-2-2--7h9----7h9---7h9------------------------------|


Post Chorus - Can be played at single notes or power chords (listen for timing)
e|-------------------------------------------------------|
B|-------------------------------------------------------|
G|-------------------------------------------------------|
D|-------------------------------------------------------|
A|-------------------------------------------------------|
E|--7--10---2--5--7--10-9-7-5-2-2-2-2--------------------|


Solo
e|----------------------------------------------------------------------------------------|
B|-----------------7h10b12r--5b7r5--------------------------------------------------------|
G|-------------6h9------------------------------------------------------------------------|
D|--------7h9-----------------------------------------------------------------------------|
A|-----7h9---------------------------------0h2p0h2p0h2p0----5-5-5-4-2--0-2s4-2------------|
E|-7h9-----------------------------2-2-2-2---------------------------------------2-2-2-2--|


Verse
e|-----------------------------------------------------|
B|-----------------------------------------------------|
G|-----------------------------------------------------|
D|-------------------7---------------------------------|
A|---------------7h9---9-7--5-5-5-4-2-2-2--------------|
E|----2-2-2--7h9---------------------------------------|


Chorus - Jamie - listen for timing
e|-----------------------------------------------|
B|-----------------------------------------------|
G|---------7---4----------7-6-4-2----------------|
D|----4----7---4-------4--7-6-4-2-4-4-4-4--------|
A|----4----5---2---x3--4--5-4-2-0-4-4-4-4--------|
E|----2-----------------2----------2-2-2-2-------|


Chorus - Alex (slides fit with harmonies)
e|--------------------------------------------------------------------|
B|-s7-s10-s12-s10-12-s10----s7-s10-s12-s10-s7--x2---------------------|
G|--------------------------------------------------------------------|
D|--------------------------------------------------------------------|
A|--------------------------------------------------------------------|
E|--------------------------------------------------------------------|

Both end on
e|-----------------|
B|-----------------|
G|-----------------|
D|--4-4-4-4--------|
A|--4-4-4-4--------|
E|--2-2-2-2--------|
Добавлено: 14.07.2013
Другие материалы по этой песне:

Страница создана 14.07.2013
http://primanota.ru/arctic-monkeys/r-u-mine-live-chords.htm
Привет, Гость.
Предлагаем пройти революционный курс по гитаре.
Подарок от PrimaNota.Ru, забирай!