PrimaNota.ru - самый крупный в мире бесплатный архив песенных текстов, аккордов, табулатур и нот


Arctic Monkeys - A Certain Romance Live - таба, видео

Регистрация Запомнить меня
Войти через:  Facebook Google Twitter Vk Yandex Mail.ru

Arctic Monkeys - A Certain Romance Live - таба, видео

Печатать
Просмотров: 293
Уроки эстрадного вокала в Санкт-Петербурге
e |----------------------------------------------------|
B |----------------------------------------------------|
G |----------------------------------8-----8--6--4-----|
D |---9-8-9--9/11-9-8-9---8-9-9/11-9---4-----------6--5|
A |----------------------------------------------------|  X2
E |----------------------------------------------------|

e |---------------------------------------|
B |--9-9-7-7--------9-9-9-7-7-------------|
G |----------8-8-8-------------8-8-8-8----|
D |---------------------------------------|
A |---------------------------------------| X 4
E |---------------------------------------|

e | --------------------------------------------------------|
B | 9-7--------7-------7-9-7-9b--7-------7-9b999-7-9-7-9----|
G | ----8-6-8----8-6-8-------------6-8-6--------------------|
D | --------------------------------------------------------|
A | --------------------------------------------------------|
E | --------------------------------------------------------|


e |---------------------------------------|
B |--9-9-7-7--------9-9-9-7-7-------------|
G |----------8-8-8-------------8-8-8-8----|
D |---------------------------------------|
A |---------------------------------------| 
E |---------------------------------------|

e |---------------------------------------|
B |--9-9-7-7-------------7-7--------------|
G |----------8-8-6-6-8-8------8-8-6-6-4---|
D |---------------------------------------|
A |---------------------------------------|
E |---------------------------------------|

e |---------------------------------------|
B |-4-4-4/3-3---3-3-3/1---1-1-111---1100--|
G |---------------------------------------|
D |---------------------------------------|
A |---------------------------------------|
E |---------------------------------------|

e |--------------------------------------------------------|
B |0-0-0h1/4-4-4-4/3---3-4-6-4-3-1-1-111---1100---0-0-0----|
G |--------------------------------------------------------|
D |--------------------------------------------------------|
A |--------------------------------------------------------|
E |--------------------------------------------------------|

End on B

e |--7--|
B |--7--|
G |--8--|
D |--9--|
A |--9--|
E |--7--|
Добавлено: 21.06.2013
Другие материалы по этой песне:
  • Аккорды и текст

Страница создана 21.06.2013
http://primanota.ru/arctic-monkeys/a-certain-romance-live-chords.htm
Привет, Гость.
Предлагаем пройти революционный курс по гитаре.
Подарок от PrimaNota.Ru, забирай!