PrimaNota.ru - самый крупный в мире бесплатный архив песенных текстов, аккордов, табулатур и нот


Architects - Gravedigger - таба, видео

Регистрация Запомнить меня
Войти через:  Facebook Google Twitter Vk Yandex Mail.ru

Architects - Gravedigger - таба, видео

Печатать
Просмотров: 562
Уроки эстрадного вокала в Санкт-Петербурге
-------------------------------------------------------------------------------
                             GRAVEDIGGER - Architects
-------------------------------------------------------------------------------
Tabbed by: dudo_pants
E-mail:


C#|-0~-------------------------0~---------------0~----------------------------------|
G#|-1~-------------------------1~---------------3~----------------------------------|
E |-2~-------------------------2~---------------4~----------------------------------|
B |-2~-------------------------3~---------------5~----------------------------------|
F#|-0~-------------------------3~---------------5~----------------------------------|
F#|---------------------------------------------------------------------------------|


C#|-0~-------------------------0~---------------------------------------------------|
G#|-1~-------------------------1~---------------------------------------------------|
E |-2~-------------------------2~---------------------------------------------------|
B |-2~-------------------------3~---------------------------------------------------|
F#|-0~-------------------------3~---------------------------------------------------|
F#|---------------------------------------------------------------------------------|


C#|---------------------------------------------------------------------------------|
G#|---------------------------------------------------------------------------------|
E |----------------5--------------------12------------------------------------------|
B |----------------7-----------------------10----10-------9-9-----------------------|
F#|-------------------------------------------0-----10-10---------------------------|
F#|-0~-0000~~0~~00----0000~~0~-0000~~0~~--------------------------------------------|
       ...      ..    ...      ...                  .  .

C#|---------------------------------------------------------------------------------|
G#|---------------------------------------------------------------------------------|
E |----------------5----------------------------5~~~--------------------------------|
B |----------------7--------------------5~~~9~~~------------------------------------|
F#|---------------------------------------------------------------------------------|
F#|-0~-0000~~0~~00----0000~~0~-0000~~0~~--------------------------------------------|
       ...      ..    ...      ...

C#|---------------------------------------------------------------------------------|
G#|---------------------------------------------------------------------------------|
E |---------------------------------------------------------------------------------|
B |---------------------------------------------------------------------------------|
F#|---------------------------------------------------------------------------------|
F#|-0~-0000~~0~-------0000~~0~-0000~~0~~--------------------------------------------|
       ...            ...      ...

C#|---------------------------------------------------------------------------------|
G#|---------------------------------------------------------------------------------|
E |-------------5--------------------------12---------------------------------------|
B |-------------7-------------------10--------10---9-10-----------------------------|
F#|------------------------------------0-0-------0----------------------------------|
F#|~0000~~0~~00----0000~~0~-0000~~0~------------------------------------------------|
    ...      ..    ...      ...

C#|---------------------------------------------------------------------------------|
G#|---------------------------------------------------------------------------------|
E |----------------5----------------------------------------------------------------|
B |----------------7----------------------------------------------------------------|
F#|---------------------------------------------------------------------------------|
F#|-0~-0000~~0~~00----0000~~0~-0000~~0~~--------------------------------------------|
       ...      ..    ...      ...

C#|---------------------------------------------------------------------------------|
G#|---------------------------------------------------------------------------------|
E |-------------5---------------------------5~~~------------------------------------|
B |-------------7-------------------5~~~9~~~----------------------------------------|
F#|---------------------------------------------------------------------------------|
F#|~0000~~0~~00----0000~~0~-0000~~0~------------------------------------------------|
    ...      ..    ...      ...

C#|-0~---------------0~--------0~---------------0~----------------------------------|
G#|-1~-----------------1~------1~---------------3~----------------------------------|
E |-2~-------------------2~----2~---------------4~----------------------------------|
B |-2~-------------------------3~---------------5~----------------------------------|   x2
F#|-0~-------------------------3~---------------5~----------------------------------|
F#|---------------------------------------------------------------------------------|


C#|-0-0-0-0--0-0--0-0--0-0-0--0-0-0-0--0-0-----0--0--0------------------------------|
G#|-1-1-1-1--1-1--1-1--1-1-1--1-1-1-1--1-1-----3--3--3------------------------------|
E |-2-2-2-2--2-2--2-2--2-2-2--2-2-2-2--2-2-----4--4--4------------------------------|
B |-2-2-2-2--2-2--2-2--2-2-2--2-2-2-2--2-2-----5--5--5------------------------------|
F#|-0-0-0-0--0-0--0-0--0-0-0--0-0-0-0--0-0-----5--5--5------------------------------|
F#|---------------------------------------------------------------------------------|


C#|-0-0-0-0--0-0--0-0--0-0-0--0-0-0-0--0-0--0-0--0-0-0------------------------------|
G#|-1-1-1-1--1-1--1-1--1-1-1--0-0-0-0--0-0--0-0--0-0-0------------------------------|
E |-2-2-2-2--2-2--2-2--2-2-2--0-0-0-0--0-0--0-0--0-0-0------------------------------|
B |-3-3-3-3--3-3--3-3--3-3-3--0-0-0-0--0-0--0-0--0-0-0------------------------------|
F#|-3-3-3-3--3-3--3-3--3-3-3--3-3-3-3--3-3--3-3--3-3-3------------------------------|
F#|---------------------------------------------------------------------------------|  
repeat last 2 bars


C#|---------------------------------------------------------------------------------|
G#|---------------------------------------------------------------------------------|
E |--------------5555555555----------9-5---5----------------------------------------|
B |--------------9999999999--------------9---9-0-5-9--------------------------------|
F#|---------------------------------------------------------------------------------|
F#|-12~-0~-0000~-------------0~-0000~-----------------------------------------------|
           ...                  ...

C#|---------------------------------------------------------------------------------|
G#|---------------------------------------------------------------------------------|
E |--------------555555444444444444444444-------------------------------------------|
B |--------------999999555555555555555555-------------------------------------------|
F#|---------------------------------------------------------------------------------|
F#|-12~-0~-0000~--------------------------------------------------------------------|  
repeat last 2 bars
           ...

C#|---------------------------------------------------------------------------------|
G#|---------------------------------------------------------------------------------|
E |------------------------------------------------------------------5-5-5-5-4-4-4--|
B |------------------------------------------------------------------9-9-9-9-5-5-5--|  x2
F#|---------------------------------------------------------------------------------|
F#|-12~-0~-0000~-------0------0--0----0--0--0--12~-0~-0000~--0--0-------------------|
           ...                                        ...

C#|---------------------------------------------------------------------------------|
G#|---------------------------------------------------------------------------------|
E |------------------------------------------------------------------5-5-5-5-4-4-4--|
B |------------------------------------------------------------------9-9-9-9-5-5-5--|  x2
F#|---------------------------------------------------------------------------------|
F#|-12~-0~-0000~-0-0~~~~-----0------0--0-----0-----0~-0000~-0--0--0-----------------|
           ...                                        ...

C#|------0~~~--------0-0-0-0-0-0-0--------------------------------------------------|
G#|------1~~~--------1-1-1-1-1-1-1--------------------------------------------------|
E |---2~-2~~~--------2-2-2-2-2-2-2--------------------------------------------------|
B |-3~---3~~~--------0-0-0-0-0-0-0--------------------------------------------------|
F#|---------------------------------------------------------------------------------|
F#|---------------------------------------------------------------------------------|
                       . . . . .

C#|-0-0-0-0--0-0--0-0--0-0-0--0-0-0-0--0-0-----0--0--0------------------------------|
G#|-1-1-1-1--1-1--1-1--1-1-1--1-1-1-1--1-1-----3--3--3------------------------------|
E |-2-2-2-2--2-2--2-2--2-2-2--2-2-2-2--2-2-----4--4--4------------------------------|
B |-2-2-2-2--2-2--2-2--2-2-2--2-2-2-2--2-2-----5--5--5------------------------------|
F#|-0-0-0-0--0-0--0-0--0-0-0--0-0-0-0--0-0-----5--5--5------------------------------|
F#|---------------------------------------------------------------------------------|


C#|-0-0-0-0--0-0--0-0--0-0-0--0-0-0-0--0-0--0-0--0-0-0------------------------------|
G#|-1-1-1-1--1-1--1-1--1-1-1--0-0-0-0--0-0--0-0--0-0-0------------------------------|
E |-2-2-2-2--2-2--2-2--2-2-2--0-0-0-0--0-0--0-0--0-0-0------------------------------|
B |-3-3-3-3--3-3--3-3--3-3-3--0-0-0-0--0-0--0-0--0-0-0------------------------------|
F#|-3-3-3-3--3-3--3-3--3-3-3--3-3-3-3--3-3--3-3--3-3-3------------------------------|
F#|---------------------------------------------------------------------------------|  
repeat last 2 bars


C#|-0--0--0--0--0---------------------------0--0--0--0-0-0-0--0--0--0-0-0-----------|
G#|-1--1--1--3--3---------------------------1--1--1--1-1-1-0--0--0--0-0-0-----------|
E |-2--2--2--4--4---------------------------2--2--2--2-2-2-0--0--0--0-0-0-----------|
B |-2--2--2--5--5---------------------------3--3--3--3-3-3-0--0--0--0-0-0-----------|  x2
F#|-0--0--0--5--5---------------------------3--3--3--3-3-3-3--3--3--3-3-3-----------|
F#|----------------0~~-0--0--0--0--0--0--0------------------------------------------|
                       .  .  .  .  .  .

C#|---------------------------------------------------------------------------------|
G#|---------------------------------------------------------------------------------|
E |---------------------------------------------------------------------------------|
B |---------------------------------------------------------------------------------|
F#|---------------------------------------------------------------------------------|
F#|-0~~~~~~~~~~~~~~~~~~~~~~~~~~~~~~~~~0~~~~~~~~~~~~~~~~~~~~~~~~~~~~~~~~~~~~~~~~~~~~~|


C#|---------------------------------------------------------------------------------|
G#|---------------------------------------------------------------------------------|
E |----------------5--------------------12------------------------------------------|
B |----------------7-----------------------10----10-------9-9-----------------------|
F#|-------------------------------------------0-----10-10---------------------------|
F#|-0~-0000~~0~~00----0000~~0~-0000~~0~~--------------------------------------------|
       ...      ..    ...      ...                  .  .

C#|---------------------------------------------------------------------------------|
G#|---------------------------------------------------------------------------------|
E |----------------5----------------------------5~~~--------------------------------|
B |----------------7--------------------5~~~9~~~------------------------------------|
F#|---------------------------------------------------------------------------------|
F#|-0~-0000~~0~~00----0000~~0~-0000~~0~~--------------------------------------------|
       ...      ..    ...

C#|---------------------------------------------------------------------------------|
G#|---------------------------------------------------------------------------------|
E |---------------------------------------------------------------------------------|
B |---------------------------------------------------------------------------------|
F#|---------------------------------------------------------------------------------|
F#|-0~-0000~~0~-------0000~~0~-0000~~0~~--------------------------------------------|
       ...            ...      ...

C#|---------------------------------------------------------------------------------|
G#|---------------------------------------------------------------------------------|
E |-------------5--------------------------12---------------------------------------|
B |-------------7-------------------10--------10---9-10-----------------------------|
F#|------------------------------------0-0-------0----------------------------------|
F#|~0000~~0~~00----0000~~0~-0000~~0~------------------------------------------------|
    ...      ..    ...      ...

C#|---------------------------------------------------------------------------------|
G#|---------------------------------------------------------------------------------|
E |----------------5----------------------------------------------------------------|
B |----------------7----------------------------------------------------------------|
F#|---------------------------------------------------------------------------------|
F#|-0~-0000~~0~~00----0000~~0~-0000~~0~~--------------------------------------------|
       ...      ..    ...      ...

C#|---------------------------------------------------------------------------------|
G#|---------------------------------------------------------------------------------|
E |-------------5---------------------------5~~~------------------------------------|
B |-------------7-------------------5~~~9~~~----------------------------------------|
F#|---------------------------------------------------------------------------------|
F#|~0000~~0~~00----0000~~0~-0000~~0~------------0~~~~~~~~~~~~~~~~~~~~~~~~~~~~~~~~~~~|
    ...      ..    ...      ...
Добавлено: 11.03.2014
Вам также может быть интересно:
Другие материалы по этой песне:

Страница создана 11.03.2014
http://primanota.ru/architects/gravedigger-chords.htm
Привет, Гость.
Предлагаем пройти революционный курс по гитаре.
Подарок от PrimaNota.Ru, забирай!