PrimaNota.ru - самый крупный в мире бесплатный архив песенных текстов, аккордов, табулатур и нот


Apollo 440 - Lost In Space - таба, видео

Регистрация Запомнить меня
Войти через:  Facebook Google Twitter Vk Yandex Mail.ru

Apollo 440 - Lost In Space - таба, видео

Печатать
Просмотров: 195
Title: Lost In Space
Artist Apollo 440
Tabbed By: Myke Day

Email Me At: mykeday@hotmail.com


This is a great song by Apollo 440. I couldn't find a tab for it any way, so 
I had to tab it out myself. The whole song is played with heavy distortion, 
you should be able to work out the intro is played, cause I really can't be 
arsed to write all the notes in.

Intro	(riff1)					(riff1b)
e---------------------|--------|---------------------
B---------------------|--------|---------------------
G---------------------|--------|--8----9---10---------
D---------------------|-X3-----|--8----9---10----------
A---------------------|--------|--6----7---8------------
E-6----5----4----1----|--------|---------------------
	p.m
.........................

Play this 4 times, then on the fifth play riff1 followed by riff1b 4 times.

Riff2

e-------------------------------------------------------
B-------------------------------------------------------
G-------------------------------------------------------
D-------------------------------------------------------
A-------------------------------------------------------
E--6-6---4-4--1-----------------------------------------

Play this with heavy distortion and Wah-Wah

Riff3

This bit is played on the keyboard, but sounds good on the guitar, use 
distortion, and a bit of Wah-Wah.

e------6---5---6---1-----------6---5---6---1------------
B------------------------4---1-------------------4---1--
G-------------------------------------------------------
D-------------------------------------------------------
A-------------------------------------------------------
E-------------------------------------------------------

e-----3---2---3-----------------------------------------
B-------------------3---0-------------------------------
G-----------------------------2---0---------------------
D---------------------------------------3---4---5-------
A-------------------------------------------------------
E-------------------------------------------------------

Riff 3

e-------------------------------------------------------
B--------3---5---6\-------3---4---5---------------------
G-------------------------------------------------------
D-------------------------------------------------------
A-------------------------------------------------------
E-------------------------------------------------------
			p.m
      ..............................



That's basically it. I can't work out the end riff YET !!! But I'll post it 
as soon as I've worked it out.
This is a great song, so enjoy !!!!!

Write any comments you wish to make and check out my website at 
http://www.geocities.com/myke_day
     
Добавлено: 22.08.2013
Вам также может быть интересно:
Другие материалы по этой песне:
  • Аккорды и текст

Страница создана 22.08.2013
http://primanota.ru/apollo-440/lost-in-space-chords.htm
Привет, Гость.
Предлагаем пройти революционный курс по гитаре.
Подарок от PrimaNota.Ru, забирай!