PrimaNota.ru - самый крупный в мире бесплатный архив песенных текстов, аккордов, табулатур и нот


Antonio Lauro - Carora - Vals Venezolano - таба, видео

Регистрация Запомнить меня
Войти через:  Facebook Google Twitter Vk Yandex Mail.ru

Antonio Lauro - Carora - Vals Venezolano - таба, видео

Печатать
Просмотров: 208
Carora - Valse Venezolano
Author: Antonio Lauro
Tab by: Carlos Cordero  
http://www.geocities.com/vienna/waltz/2067

"Here is a real masterpiece, really difficult to play.
 This piece was dedicated to Alirнo Dнaz who is from
 Carora, and here Lauro imitates the Bandola Criolla"

Time Signature: 3/4
Key Signature: C Major
First Revision: 19/11/2000.

                segno.

E-|---------0-||----0---0---0-|-------------|-------------|------------12-15-|
B-|-------1---||--3---1---0---|---------0-3-|-1---0-------|---------13-------|
G-|-----2-----||*-4---2---4---|-------1-----|---2---1-2---|---13-14----------|
D-|-1h2-------||*-------------|---1-2-------|-----------2-|------------------|
A-|-----------||--------------|-------------|-0---0---3---|-0----------------|
E-|-----------||--0---2---4---|-0-----------|-------------|------------------|

   cX----------------/cVI----------/

E-|-13----12-10----8-|-8---7-8---7-|-7-------0---|-----------0-|---0---0---0-|
B-|----10-------10---|---7-----7---|-------0-----|---------1---|-3---1---0---|
G-|----10-------10---|-------------|-----7-----7-|-------2-----|-4---2---4---|
D-|-0----------------|---7---------|---6---------|---1p2-------|-------------|
A-|------------------|-6-----------|-7-----------|-0-----------|-------------|
E-|------------------|-------------|-------------|-------------|-0---2---4---|

                               cV------------------/cIII------/cV--/cI----/

E-|-------------|-------------|-----------5-|--------------|--------------|
B-|---------0-3-|-1---0-------|---------5---|-8---6--5---3-|-6---5--3---1-|
G-|-------1-----|---2---1-2---|-------5-----|---5------4---|---5------2---|
D-|---1-2-------|-----------2-|-----7-------|---7------3---|---5------1---|
A-|-------------|-0---0---3---|---7---------|-5------------|-3------------|
E-|-0-----------|-------------|-5-----------|--------3-----|--------1-----|


   cI-------/    cIII-----/cII---------------/

E-|-------------|--------------|---------5---|-------------|---------3---|
B-|-4-----3-----|-------3--2-5-|-5-----3-----|-------1-0-3-|-3-----1---0-|
G-|-----3-------|-----4----3---|-----2-----2-|-----1-------|-----0-----2-|
D-|---3-------0-|---3------2---|---4-------4-|---0---------|---2---------|
A-|-1-------0---|--------------|-------------|-------------|-------------|
E-|-------------|-4--------3---|-2-----------|-1-----------|-0-----------|

                                         
                                            cV--------/ 1°------------| 

E-|-------------|-----0-----0-|-4--5-7---8-|-5-5-5---5-|-----------0--||
B-|---0-1-3-1-0-|-1-3---1-----|-3----------|-5-5-5---5-|---------1----||
G-|---2---------|-2-------2---|-4--5-7-----|-5-5-5---5-|-------2-----*||
D-|---0---------|-2-----------|------------|-----------|---1h2-------*||
A-|-------------|-------------|------------|-0---------|-0------------||
E-|-1-----------|-0-----------|-0------0---|-------0---|--------------||
                                                   *to coda
 
   2°-----------|

E-|-------------||----------------|------------------|----------------|
B-|-------------||-----5------5---|---------11----10-|--------11---10-|
G-|-------------||*----6----7---6-|-10----9----------|-12--10---------|
D-|---0h2h3-5h7-||*-)8----7-------|----11------11----|--0-------------|
A-|-0-----------||--(0------------|--0---------------|-----------0----|
E-|-------------||----------------|------------------|----------------|

   cX-----------------/                       cVII

E-|-12----10-15----13-|-------0-------|-3---2-8-----|-------0----------|
B-|----10-------10----|-----0-------4-|---2-------7-|-7---0-------<12>-|
G-|----10-------10----|-5---------2---|---2-----8---|---0-----<12>-----|
D-|--0----------------|---7-----4-----|---------7---|------------------|
A-|-------------------|-3-------------|-2-----0-----|------------------|
E-|-------------------|---------------|-------------|-3----------------|

             

E-|-<12>-----------|-------------|-----------------|-----0--------0----|
B-|----------------|---0-----0---|----9-------0----|----10-------10----|
G-|----------------|---1-----7---|----9------------|-------------------|
D-|------------0h2-|-3---2-7---6-|-10---9--15---14-|-12----10-12----10-|
A-|----------2-----|-------------|--9------11------|--0----------------|
E-|------0h4-------|-------------|--0-------0------|-------------------|

                                               cV--------/ 1°------------|

E-|-------------|-------0----8-|-<12>---8--)7-|-5-5-5---5-|--------------||
B-|-0-----0-----|-----1---10---|--------7--(0-|-5-5-5---5-|--------------||
G-|-----2-----2-|---2----------|--------8--)7-|-5-5-5---5-|-------------*||
D-|---0-----0---|--------------|-----------(6-|-----------|---0h2h3-5h7-*||
A-|-------------|--------------|-----------)7-|-0---------|-0------------||
E-|-1-----------|-0------------|------0----(0-|-------0---|--------------||

   2°-----------|                  *coda

E-|-----------0-|                 |------|
B-|---------1---|                 |------|
G-|-------2-----| d.s. to coda    |------| fine
D-|---1p2-------|                 |------|
A-|-0-----------|                 |--0.--|
E-|-------------|                 |------|

                      
...._

Tablature Explanation:
                                                               cx------/

E-||----------|| |-------|-------|----(7----|-------|---------|---------|
B-||----------|| |-------|-------|----)7----|-------|---------|---------|
G-||*-repeat-*|| |--3/9--|--5p3--|----(5----|--1h3--|--<12>---|---------|
D-||*--------*|| |-------|-------|----)6----|-------|---------|---------|
A-||----------|| |-------|-------|----(6----|-------|---------|---------|
E-||----------|| |-------|-------|----)7----|-------|---------|---------|
                   Slur    Pull    Arpegiate  Hammer  Harmonic   Bar on
                           off                 on                x fret

......................................................_

E-|---Author:-Antonio-Lauro------------------------|
B-|---Tab-by:-Carlos-Cordero-----------------------|
G-|---E-Mail:-cachome@telcel.net.ve----------------|   
D-|---Look-More-Classical-Guitar-Tabs-at:----------|
A-|---http://www.geocities.com/vienna/waltz/2067---|
E-|---Send-your-comments-and-questions-------------|
......................................................_
Добавлено: 17.07.2012
Другие материалы по этой песне:
  • Аккорды и текст

Страница создана 17.07.2012
http://primanota.ru/antonio-lauro/carora-vals-venezolano-chords.htm
Привет, Гость.
Предлагаем пройти революционный курс по гитаре.
Подарок от PrimaNota.Ru, забирай!