PrimaNota.ru - самый крупный в мире бесплатный архив песенных текстов, аккордов, табулатур и нот


Anti Flag - We Don't Need It - текст песни, таба, видео

Регистрация Запомнить меня
Войти через:  Facebook Google Twitter Vk Yandex Mail.ru

Anti Flag - We Don't Need It - текст песни, таба, видео

Печатать
Просмотров: 194
Anti-Flag-We Don't Need It
Standard Tuning


Intro Rhythm
E|--------------------------------------------------------|
B|--------------------------------------------------------|
G|-6---6---6-6-6---6---6-6--------------------------------|
D|-6-6-6-6-6-6-6-6-6-6-6-6-6-6-6-6-6-6-6-6-4-4-4-4-4-4-4-4|x2
A|-4-6-4-6-4-4-4-6-4-6-4-4-6-6-6-6-6-6-6-6-4-4-4-4-4-4-4-4|
E|---4---4-------4---4-----4-4-4-4-4-4-4-4-2-2-2-2-2-2-2-2|

Intro Lead
E|-------------------------4~~~~~~~~~~~~~~~2-1~~~~~~~~~~6-9~~~~|
B|-------------------------------------------------------------|
G|-------------------------------------------------------------|
D|-------------------------------------------------------------|
A|-------------------------------------------------------------|
E|-------------------------------------------------------------|

E|-------------------------4~~~~~~~~~~~~~~~2-1~~~~~~~~~~-------|
B|-------------------------------------------------------------|
G|--------------------------------------------------------6~~~~|
D|------------------------------------------------------6------|
A|-------------------------------------------------------------|
E|-------------------------------------------------------------|

Verse
E|-----------------------------------------------|
B|-----------------------------------------------|
G|-----------------------------------------------|
D|----------6-6-6-6-6-6-6-6-4-4-4-4-4-4-4-4~~~~~~|
A|----------6-6-6-6-6-6-6-6-4-4-4-4-4-4-4-4~~~~~~|(hold through next 
E|----------4-4-4-4-4-4-4-4-2-2-2-2-2-2-2-2~~~~~~| break)                   x2

E|-----4~---4~~~~~~~~~~~~~~~2-1~~~~~~~~~~6-9~~~~~|(hold through next 
B|-----------------------------------------------| break)
G|-----------------------------------------------|
D|-----------------------------------------------|
A|-----------------------------------------------|
E|-----------------------------------------------|

E|----------4~~~~~~~~~~~~~~~2-1~~~~~~~~~~|
B|---------------------------------------|
G|---------------------------------------|
D|---------------------------------------|
A|---------------------------------------|
E|---------------------------------------|

Chorus Rhythm
E|-------------------------------|       
B|-------------------------------|       
G|---66---66---66----------------|3x 
D|-6-66-6-66-6-66-6-6-6-6-6-6-6-6|       
A|-6-44-6-44-6-44-6-6-6-6-6-6-6-6|       
E|-4----4----4----4-4-4-4-4-4-4-4|       
then
E|-------------------------------|
B|-------------------------------|
G|----------------6-6-6-6-6-6-6-6|
D|6-6-6-6-6-6-6-6-6-6-6-6-6-6-6-6|
A|6-6-6-6-6-6-6-6-4-4-4-4-4-4-4-4|
E|4-4-4-4-4-4-4-4----------------|

Chorus Lead
E|-9~~~~~~~~~~~~9~~~~~~~~~~~~9999~~~~~~~~~~|
B|-----------------------------------------|
G|-----------------------------------------|(pick scrape the 4 nines)
D|-----------------------------------------|
A|-----------------------------------------|
E|-----------------------------------------|

Post Chorus Rhythm
E|--------------------------------------------------------|
B|--------------------------------------------------------|
G|-6---6---6-6-6---6---6-6--------------------------------|
D|-6-6-6-6-6-6-6-6-6-6-6-6-6-6-6-6-6-6-6-6-4-4-4-4-4-4-4-4|x2
A|-4-6-4-6-4-4-4-6-4-6-4-4-6-6-6-6-6-6-6-6-4-4-4-4-4-4-4-4|
E|---4---4-------4---4-----4-4-4-4-4-4-4-4-2-2-2-2-2-2-2-2|

Post Chorus Lead
E|-------------------------4~~~~~~~~~~~~~~~2-1~~~~~~~~~~6-9~~~~|
B|-------------------------------------------------------------|
G|-------------------------------------------------------------|
D|-------------------------------------------------------------|
A|-------------------------------------------------------------|
E|-------------------------------------------------------------|

E|-------------------------4~~~~~~~~~~~~~~~2-1~~~~~~~~~~-------|
B|-------------------------------------------------------------|
G|--------------------------------------------------------6~~~~|
D|-------------------------------------------------------6-----|
A|-------------------------------------------------------------|
E|-------------------------------------------------------------|

Verse 
E|-----------------------------------------------|
B|-----------------------------------------------|
G|-----------------------------------------------|
D|----------6-6-6-6-6-6-6-6-4-4-4-4-4-4-4-4~~~~~~|
A|----------6-6-6-6-6-6-6-6-4-4-4-4-4-4-4-4~~~~~~|(hold through next 
E|----------4-4-4-4-4-4-4-4-2-2-2-2-2-2-2-2~~~~~~| break)                   x2
E|-----4~---4~~~~~~~~~~~~~~~2-1~~~~~~~~~~6-9~~~~~|(hold through next 
B|-----------------------------------------------| break)
G|-----------------------------------------------|
D|-----------------------------------------------|
A|-----------------------------------------------|
E|-----------------------------------------------|

E|-------------------------4~~~~~~~~~~~~~~~2-1~~~~~~~~~~|
B|------------------------------------------------------|
G|------------------------------------------------------|
D|------------------------------------------------------|
A|------------------------------------------------------|
E|------------------------------------------------------|

Chorus Rhythm
E|-------------------------------|       
B|-------------------------------|       
G|---66---66---66----------------|3x 
D|-6-66-6-66-6-66-6-6-6-6-6-6-6-6|    
A|-6-44-6-44-6-44-6-6-6-6-6-6-6-6|       
E|-4----4----4----4-4-4-4-4-4-4-4|      
then
E|---------------|
B|---------------|
G|---------------|
D|6-6-6-6-6-6-6-6|
A|6-6-6-6-6-6-6-6|
E|4-4-4-4-4-4-4-4|

Chorus Lead
E|-9~~~~~~~~~~~~9~~~~~~~~~~~~9999~~~~~~~~|
B|---------------------------------------|
G|---------------------------------------| (pick scrape the 4 nines)
D|---------------------------------------|
A|---------------------------------------|
E|---------------------------------------|

Bridge Rhythm
E|------------------------------|
B|------------------------------|
G|------------------------------|
D|-6------4------6------864-864-|
A|-6(x12)-4(x12)-6(x12)-864-864-|
E|-4------2------4------642-642-|
                                                
E|-------------------------------------|
B|-------------------------------------|
G|6~-------------------6~--------------|
D|6~-----8~-----6~-----6~-----8~-----6~|
A|4~-----8~-----6~-----4~-----8~-----6~|
E|-------6~-----4~------------6~-----4~|

E|----------------------------------------------------------------|
B|----------------------------------------------------------------|
G|-6-6-6-6-6-6-6-6------------------------------------------------|
D|-6-6-6-6-6-6-6-6-8-8-8-8-8-8-8-8-6-6-6-6-6-6-6-6-4-4-4-4-4-4-4-4|x2
A|-4-4-4-4-4-4-4-4-8-8-8-8-8-8-8-8-6-6-6-6-6-6-6-6-4-4-4-4-4-4-4-4|
E|-----------------6-6-6-6-6-6-6-6-4-4-4-4-4-4-4-4-2-2-2-2-2-2-2-2|
   . . . . . . . . . . . . . . . . . . . . . . . . . . . . . . . .

E|------------------------------------------------------|
B|------------------------------------------------------|
G|------------------------------------------------------|
D|---6-----6-8-8-8-8-----------4-4-4-4---6-----6-8-8-8-8|
A|-4---4-4---8-8-8-8---6-----6-4-4-4-4-4---4-4---8-8-8-8|
E|-----------6-6-6-6-4---4-4---2-2-2-2-----------6-6-6-6|
   . . . . .         . . . . .         . . . . .         

E|--------------------------------|
B|--------------------------------|
G|--------------------------------|
D|-6-6-6-6-6-6-6-6-6-6-6-6-6-6-6-6|
A|-6-6-6-6-6-6-6-6-6-6-6-6-6-6-6-6|
E|-4-4-4-4-4-4-4-4-4-4-4-4-4-4-4-4|
   . . . . . . . . 

Solo
E|---4-2-1-2-1-11-9-9-11-9-9-11b-14b-14bp11bp9-|
B|-2~------------------------------------------|
G|---------------------------------------------|
D|---------------------------------------------|
A|---------------------------------------------|
E|---------------------------------------------|

continued…
E|-9-4-2-4-2-1-9-4-2-4-2-1-9-4-2-4-2-1-9-4-2-4-2-1-|
B|-------------------------------------------------|
G|-------------------------------------------------|
D|-------------------------------------------------|
A|-------------------------------------------------|
E|-------------------------------------------------|

Solo Rhythm 
E|------------|
B|------------|
G|------------|
D|4-----6-----|
A|4(16x)6(16x)|
E|2-----4-----|

E|-------------------------------------------------------
B|-------------------------------------------------------
G|--66---66---66-----------------(6)(6)(6)(6)(6)(6)(6)(6)
D|6-66-6-66-6-66-6-6-6-6-6-6-6-6-(6)(6)(6)(6)(6)(6)(6)(6)
A|6-44-6-44-6-44-6-6-6-6-6-6-6-6-(4)(4)(4)(4)(4)(4)(4)(4)
E|4----4----4----4-4-4-4-4-4-4-4-------------------------
                (. . . . . . . .)

Altered Chorus
E|------------|  |--------------------------------|
B|------------|  |--------------------------------|
G|------------|  |-----------------6-6-6-6-6-6-6-6|
D|-6-----4----|x6|-6-6-6-6-6-6-6-6-6-6-6-6-6-6-6-6|
A|-6(x8)-4(x8)|  |-6-6-6-6-6-6-6-6-4-4-4-4-4-4-4-4|
E|-4-----2----|  |-4-4-4-4-4-4-4-4----------------|



Chorus Lead
E|-9~~~~~~~~~~~~9~~~~~~~~~~~~9999~~~~~~~~~~|
B|-----------------------------------------|
G|-----------------------------------------| (pick scrape the 4 nines)
D|-----------------------------------------|
A|-----------------------------------------|
E|-----------------------------------------|

End On
E|-|
B|-|
G|6|
D|6|
A|4|
E|-|

~=hold note
.=palm mute
b=bend
bp=bend/pull
()=2nd time

Добавлено: 25.02.2012
Другие материалы по этой песне:
  • Аккорды и текст

Страница создана 25.02.2012
http://primanota.ru/anti-flag-2/we-dont-need-it-chords.htm
Привет, Гость.
Предлагаем пройти революционный курс по гитаре.
Подарок от PrimaNota.Ru, забирай!