PrimaNota.ru - самый крупный в мире бесплатный архив песенных текстов, аккордов, табулатур и нот


Anti Flag - Broken Bones - таба, видео

Регистрация Запомнить меня
Войти через:  Facebook Google Twitter Vk Yandex Mail.ru

Anti Flag - Broken Bones - таба, видео

Печатать
Просмотров: 799
Авторы: Chris Head, Justin Sane, Pat Thetic, Chris #2

great song! needed to be tabbed so here you go!


(both guitars) 
e----------------------------|
b----------------------------|
g--6~---2~------4~--6~-------|
d--6~---2~--2~--4~--6~-------|  PICK SLIDE!!!!!
a--4~---0~--2~--2~--4~-------|
e-----------0~---------------|

(guitar 2)
e-------------------------------------|
b-------------------------------------|
g--6-6-6-6-2-2-2-2--------------------| x2
d--6-6-6-6-2-2-2-2-2-2-2-2-2-2-2-2----|
a--4-4-4-4-0-0-0-0-2-2-2-2-2-2-2-2----|      *this part is first time==========this 
e------------------0-0-0-0-0-0-0-0----|     is second time after first verse

(guitar 1)                                   
e-------------------------------------[---------------------------------------] 
b------------------7-7-7--------------[------------------7b9-7b9-7b9---7------] 
g-----6-9-9~---6-9-------9-6----6-----[-----6-9-9~--6-9--------------9---9~---] 
d-9-9------------------------9~---6~--[-9-9-----------------------------------] 
a-------------------------------------[---------------------------------------] 
e-------------------------------------[---------------------------------------] 

-----------------------------|
----5----5----5-7-4-5>pinch--|
-4h6--4h6--4h6---------------|
-----------------------------|
-----------------------------|
-----------------------------|


verse
(both guitars)
e-----------------------------------------------------------
b-----------------------------------------------------------
g--6-------------2------------------------------------------
d--6-6-6-6-6-6-6-2-2-2-2-2-2-2-2---------------------------- 2x 
a--4-4-4-4-4-4-4-0-0-0-0-0-0-0-2-2-2-2-2-2-2-2-2-2-2-2-2-2-2
e------------------------------0-0-0-0-0-0-0-0-0-0-0-0-0-0-0
     . . . . . .   . . . . . .   . . . . . . . . . . . . . .

then  pre-chorus

e---------------------------------------------------------------------------------------------------
b---------------------------------------------------------------------------------------------------
g--6-----------2--2--2--2-6------------2--2--2--2--6------------------------------------------------
d--6-6-6-6-6-6-2--2--2--2-6-6-6-6-6-6--2--2--2--2--6--6-6-6-6-6-6-6-3-2-2-2-2-2-2-2-4-4-4-4-4-4-4-4-
a--4-4-4-4-4-4-0--0--0--0-4-4-4-4-4-4--0--0--0--0--4--4-4-4-4-4-4-4-0-0-0-0-0-0-0-0-2-2-2-2-2-2-2-2-
e---------------------------------------------------------------------------------------------------
     . . . . .              . . . . .                 . . . . . . . . . . . . . . . . . . . . . . . 
 chorus
use these chords you will figure it out
e----------------------|
b----------------------|
g--6---2-----4---------|
d--6---2--2--4---------|
a--4---0--2--2---------|
e---------0------------|


 intro again

for the second verse play c#5  as a whole note tied to another whole note twice 
and that brings you back to the pre-chorus

bridge
(i got lazy)
b5-c#5-a5-e5
b5-c#5-a5-e5-b5-c#5
a5-c#5-b5                     


                                              you got this!!!
Добавлено: 10.11.2013
Другие материалы по этой песне:
  • Аккорды и текст

Страница создана 10.11.2013
http://primanota.ru/anti-flag-2/broken-bones-chords.htm
Привет, Гость.
Предлагаем пройти революционный курс по гитаре.
Подарок от PrimaNota.Ru, забирай!