PrimaNota.ru - самый крупный в мире бесплатный архив песенных текстов, аккордов, табулатур и нот


Anti Flag - Sky Is Falling - бас-таба, видео

Регистрация Запомнить меня
Войти через:  Facebook Google Twitter Vk Yandex Mail.ru

Anti Flag - Sky Is Falling - бас-таба, видео

Печатать
Просмотров: 85
Авторы: Anti‐Flag

Intro
G|------------------------|------------------------|------------------------|------------------------|
D|-11-11-11-11-11-11-11-11|-14-14-14-13-13-13-11-11|------------------------|-14-14-14-13-13-13-11-11|
A|------------------------|------------------------|-12-12-12-12-12-12-12-12|------------------------|
E|------------------------|------------------------|------------------------|------------------------|

G|------------------------|------------------------|------------------------|------------------------|
D|/18-18-18-18-18-18-18-18|-18-18-18-18-18-18-14-14|h16-16-16-16-16-16-16-16|-------11-13-14-13-11---|
A|------------------------|------------------------|------------------------|-12-12----------------12|
E|------------------------|------------------------|------------------------|------------------------|

G|----------------|----------------|----------------|----------------|
D|----------------|----------------|----------------|----------------|
A|-4-4-4-4-4-4-4-4|-7-7-7-6-6-6-4-4|----------------|-7-7-7-6-6-6-4-4|
E|----------------|----------------|-5-5-5-5-5-5-5-5|----------------|


Verse
"I see my future straight in front of me..."
G|----------------|----------------|----------------|----------------|
D|----------------|----------------|----------------|----------------|
A|-4-4-4----------|----------------|-4-4-4----------|-7-7-7----------|
E|-----------5-5-5|-0-0-0-----7-7-7|-----------5-5-5|-----------7-7-7|

G|----------------|----------------|----------------|----------------|
D|----------------|----------------|----------------|-7-7-7-6-7-6-4--|
A|-4-4-4----------|----------------|----------------|---------------7|
E|-----------5-5-5|-0-0-0-----7-7-7|-4-4-4-4-4-4-4-4|----------------|

G|----------------|----------------|----------------|----------------|
D|----------------|----------------|----------------|----------------|
A|-4-4-4----------|----------------|-4-4-4----------|-7-7-7----------|
E|-----------5-5-5|-0-0-0-----7-7-7|-----------5-5-5|-----------7-7-7|

G|----------------|----------------|----------------|----------------|
D|----------------|----------------|----------------|-7-7-7-6-7-6-4--|
A|-4-4-4----------|----------------|----------------|---------------7|
E|-----------5-5-5|-0-0-0-----7-7-7|-4-4-4-4-4-4-4-4|----------------|


Pre-Chorus
"I know it's much too late..."
G|----------------|----------------|----------------|--------------------|
D|----------------|----------------|----------------|-11-11-11-9-11-9-7--|
A|-7-7-7-7--------|----------------|-7-7-7-7--------|-------------------9|
E|---------7-7-7-7|-9-9-9-9-9-9-9-9|---------7-7-7-7|--------------------|

G|----------------|----------------|----------------|--------------------|
D|----------------|----------------|----------------|--------------------|
A|-7-7-7-7--------|----------------|----------------|--------------------|
E|---------7-7-7-7|-9-9-9-9-5-5-5-5|-4-4-4-4-4-4-4-4|-4------------------|


Chorus
"Sky is falling down..."
G|----------------|----------------|----------------|----------------|
D|----------------|----------------|----------------|----------------|
A|-4-4-4-4-4-4-4-4|-4-4-4-4-4-4-4-4|----------------|----------------|
E|----------------|----------------|-5-5-5-5-5-5-5-5|-5-5-5-5-5-5-5-5|

G|----------------|----------------|----------------|----------------|
D|----------------|----------------|----------------|----------------|
A|----------------|----------------|----------------|----------------|
E|-0-0-0-0-0-0-0-2|-5-5-5-5-5-5-5-5|-2-2-2-2-2-2-2-2|-5-5-5-5-7-7-7-7|


Pre-verse
G|----------------|----------------|----------------|----------------|
D|----------------|----------------|----------------|----------------|
A|-4-4-4-4-4-4-4-4|-7-7-7-6-6-6-4-4|----------------|-7-7-7-6-6-6-4-4|
E|----------------|----------------|-5-5-5-5-5-5-5-5|----------------|


Verse
"In disbelief we're in a lost blank stare..."
G|----------------|----------------|----------------|----------------|
D|----------------|----------------|----------------|----------------|
A|-4-4-4----------|----------------|-4-4-4----------|-7-7-7----------|
E|-----------5-5-5|-0-0-0-----7-7-7|-----------5-5-5|-----------7-7-7|

G|----------------|----------------|----------------|----------------|
D|----------------|----------------|----------------|-7-7-7-6-7-6-4--|
A|-4-4-4----------|----------------|----------------|---------------7|
E|-----------5-5-5|-0-0-0-----7-7-7|-4-4-4-4-4-4-4-4|----------------|

G|----------------|----------------|----------------|----------------|
D|----------------|----------------|----------------|----------------|
A|-4-4-4----------|----------------|-4-4-4\---------|-7-7-7----------|
E|-----------5-5-5|-0-0-0-----7-7-7|-----------5-5-5|-----------7-7-7|

G|----------------|----------------|----------------|----------------|
D|----------------|----------------|----------------|----------------|
A|-4-4-4----------|----------------|----------------|----------------|
E|-----------5-5-5|-0-0-0-----7-7-7|-4-4-4-4-4-4-4-4|-4--------------|


Chorus
"Sky is falling down..."
G|----------------|----------------|----------------|----------------|
D|----------------|----------------|----------------|-7-7-7-6-6-6-4-4|
A|-4-4-4-4-4-4-4-4|-4-4-4-4-4-4-4-4|----------------|----------------|
E|----------------|----------------|-5-5-5-5-5-5-5-5|----------------|

G|----------------|----------------|----------------|----------------|
D|----------------|----------------|----------------|----------------|
A|-7-7-7-7-7-7-7-7|----------------|-9-9-9-9-9-9-9-9|----------------|
E|----------------|-5-5-5-5-5-5-5-5|----------------|-5-5-5-5-7-7-7-7|

G|----------------|----------------|----------------|----------------|
D|----------------|----------------|----------------|-7-7-7-6-6-6-4-4|
A|-4-4-4-4-4-4-4-4|-4-4-4-4-4-4-4-4|----------------|----------------|
E|----------------|----------------|-5-5-5-5-5-5-5-5|----------------|

G|----------------|----------------|----------------|----------------|
D|----------------|----------------|----------------|----------------|
A|-7-7-7-7-7-7-7-7|----------------|-9-9-9-9-9-9-9-9|----------------|
E|----------------|-5-5-5-5-5-5-5-5|----------------|-5-5-5-5-7-7-7-7|


Break
G|----------------|----------------|----------------|----------------|
D|----------------|----------------|----------------|----------------|
A|-4-4-4-4-4-4-4-4|-7-7-7-6-6-6-4-4|----------------|-7-7-7-6-6-6-9-9|
E|----------------|----------------|-5-5-5-5-5-5-5-5|----------------|

G|----------------|----------------|----------------|----------------|
D|----------------|----------------|----------------|----------------|
A|-4-4-4-4-4-4-4-4|-7-7-7-6-6-6-4-4|----------------|-7-7-7-6-6-6-9-9|
E|----------------|----------------|-5-5-5-5-5-5-5-5|----------------|

G|----------------|----------------|----------------|----------------|
D|----------------|----------------|----------------|----------------|
A|-4-4-4-4-4-4-4-4|-7-7-7-6-6-6-4-4|----------------|-7-7-7-6-6-6-9-9|
E|----------------|----------------|-5-5-5-5-5-5-5-5|----------------|

G|----------------|----------------|----------------|----------------|
D|----------------|----------------|----------------|----------------|
A|-4-4-4-4-4-4-4-4|-7-7-7-6-6-6-4-4|----------------|----------------|
E|----------------|----------------|-5-5-5-5-5-5-5-5|-5-5-5-5-5-5-5-5|


Guitar Solo
G|----------------|----------------|----------------|----------------|
D|----------------|----------------|----------------|----------------|
A|-4-4-4-4-4-4-4-4|-4-4-4-4-4-4-4-4|----------------|----------------|
E|----------------|----------------|-5-5-5-5-5-5-5-5|-5-5-5-5-5-5-5-5|

G|----------------|----------------|----------------|----------------|
D|----------------|----------------|----------------|----------------|
A|----------------|----------------|----------------|----------------|
E|-0-0-0-0-0-0-0-2|-5-5-5-5-5-5-5-5|-2-2-2-2-2-2-2-2|-5-5-5-5-7-7-7-7|


Pre-intro
"I know it's much too late..."
G|----------------|----------------|----------------|--------------------|
D|----------------|----------------|----------------|--------------------|
A|-7-7-7-7--------|----------------|----------------|--------------------|
E|---------7-7-7-7|-9-9-9-9-5-5-5-5|-4-4-4-4-4-4-4-4|-4------------------|


Intro
"Falling down on me..."
G|------------------------|------------------------|------------------------|------------------------|
D|-11-11-11-11-11-11-11-11|-14-14-14-13-13-13-11-11|------------------------|-14-14-14-13------------|
A|------------------------|------------------------|-12-12-12-12-12-12-12-12|------------------------|
E|------------------------|------------------------|------------------------|------------------------|


Chorus
"There is no past, no future..."
G|----------------|----------------|----------------|----------------|
D|----------------|----------------|----------------|----------------|
A|----------------|----------------|----------------|----------------|
E|-0-0-0-0-0-0-0-2|-5-5-5-5-5-5-5-5|-2-2-2-2-2-2-2-2|-5-5-5-5-7-7-7-7|

G|----------------|----------------|----------------|----------------|
D|----------------|----------------|----------------|-7-7-7-6-6-6-4-4|
A|-4-4-4-4-4-4-4-4|-4-4-4-4-4-4-4-4|----------------|----------------|
E|----------------|----------------|-5-5-5-5-5-5-5-5|----------------|

G|----------------|----------------|----------------|----------------|
D|----------------|----------------|----------------|----------------|
A|-7-7-7-7-7-7-7-7|----------------|-9-9-9-9-9-9-9-9|----------------|
E|----------------|-5-5-5-5-5-5-5-5|----------------|-5-5-5-5-7-7-7-7|


Outro
G|------------------------|------------------------|------------------------|------------------------|
D|-11-11-11-11-11-11-11-11|-14-14-14-13-13-13-11-11|-------11-------11------|-14-14-14-13-13-13-16-16|
A|------------------------|------------------------|-12-12----12-12----12-12|------------------------|
E|------------------------|------------------------|------------------------|------------------------|

G|------------------------|------------------------|------------------------|
D|-16-16-14-18-18-18-16-14|-14h16-16----------16---|-------11-13-------13-11|
A|------------------------|----------14----14----14|-12-12------------------|
E|------------------------|------------------------|------------------------|

Play outro twice


Tabbed by: Scott Watters
Notes:     The Intro and Outro were a b**** to figure out. I'm not 100% sure on them though. If anyone has a 
           correction then feel free to tell me, and I'll update the tab.

You can check out my cover of this song on YouTube
https://www.youtube.com/watch?v=ox9_KVPPXhg

| /  slide up
| \  slide down
| h  hammer-on
| p  pull-off
| ~  vibrato
| +  harmonic
| x  Mute note
Добавлено: 28.04.2016
Вам также может быть интересно:
Другие материалы по этой песне:
  • Аккорды и текст

Страница создана 28.04.2016
http://primanota.ru/anti-flag-2/sky-is-falling-chords.htm
Привет, Гость.
Предлагаем пройти революционный курс по гитаре.
Подарок от PrimaNota.Ru, забирай!