PrimaNota.ru - самый крупный в мире бесплатный архив песенных текстов, аккордов, табулатур и нот


Anti Flag - Fuck The Pope - текст песни, таба, видео

Регистрация Запомнить меня
Войти через:  Facebook Google Twitter Vk Yandex Mail.ru

Anti Flag - Fuck The Pope - текст песни, таба, видео

Печатать
Просмотров: 170
Righty-ho, this is my first tab.
I tabbed this out ages ago but could never be arsed to put it up...
I couldnt find it anywhere so here it is... not 100% right im sure but
hell what tab is!!

E|-------------------------------------------------|
B|-------------------------------------------------|
G|-9-----------------------------------------------|
D|-9-x6-9----10----9-------------------------------| x6
A|-7----9-x2-10-x6-9-x2----------------------------|
E|------7----8-----7-------------------------------|

E|-------------------------------------------------|
B|-------------------------------------------------|
G|-9----7------------------------------------------|
D|-9-x4-7-x4-7-------------------------------------| x4
A|-7----5----7-------------------------------------|
E|-----------5-------------------------------------|

E|-------------------------------------------------|
B|-------------------------------------------------|
G|-9-----------------------------------------------|
D|-9-x6-9----10----9-------------------------------| x4
A|-7----9-x2-10-x6-9-x2----------------------------|
E|------7----8-----7-------------------------------|

E|-------------------------------------------------|
B|-------------------------------------------------|
G|-9----7------------------------------------------|
D|-9-x4-7-x4-7-------------------------------------| x4
A|-7----5----7-------------------------------------|
E|-----------5-------------------------------------|

“You fuckin' prick!”
E|-------------------------------------------------|
B|-------------------------------------------------|
G|------------7-----7------------------------------|
D|-9----10----7-7---7-7----------------------------| x2
A|-9-x8-10-x8-5-7---5-7----------------------------|
E|-7----8-------5-----5----------------------------|

E|-------------------------------------------------|
B|-------------------------------------------------|
G|-12----14----9-----------------------------------|
D|-12-x4-14-x4-9-x8--------------------------------| x2
A|-10----12----7-----------------------------------|
E|-------------------------------------------------|


E|-------------------------------------------------|
B|-------------------------------------------------|
G|-9-9-9----9-9-9----9-9-9----9-9--9-9-9-----------|
D|-9-9-9----9-9-9----9-9-9----9-9--9-9-9-----------|
A|-7-7-7----7-7-7----7-7-7----7-7--7-7-7-----------|
E|-------------------------------------------------|

E|-------------------------------------------------|
B|-------------------------------------------------|
G|-9-----------------------------------------------| x2
D|-9-x6-9----10----9-------------------------------|
A|-7----9-x2-10-x6-9-x2----------------------------|
E|------7----8-----7-------------------------------|

Right, the weird sound near the end of the song is played in the middle of the section 
^^^ (on the song at 1:38) on the second time playing through, played over C5.

This is what I think it is...

E|-------------------|
B|-------------------|
G|----17//19---------|
D|----17//19---------|
A|----15//17---------|
E|-------------------|

Then back to...

E|-------------------------------------------------|
B|-------------------------------------------------|
G|-9-----------------------------------------------| x4
D|-9-x6-9----10----9-------------------------------|
A|-7----9-x2-10-x6-9-x2----------------------------|
E|------7----8-----7-------------------------------|

Ending with

E|-------------------------------------------------|
B|-------------------------------------------------|
G|-9----7------------------------------------------|
D|-9-x4-7-x4-7-------------------------------------| x4
A|-7----5----7-------------------------------------|
E|-----------5-------------------------------------|


Please tell me if any is "off" and ill change it accordingly
otherwise enjoy ^^

xxxxxxxxxxxxxxxxxxxxxxxxxxx
Добавлено: 27.03.2012
Другие материалы по этой песне:
  • Аккорды и текст

Страница создана 27.03.2012
http://primanota.ru/anti-flag-2/fuck-the-pope-chords.htm
Привет, Гость.
Предлагаем пройти революционный курс по гитаре.
Подарок от PrimaNota.Ru, забирай!