PrimaNota.ru - самый крупный в мире бесплатный архив песенных текстов, аккордов, табулатур и нот


Anthrax - Raise Hell - текст песни, таба, видео

Регистрация Запомнить меня
Войти через:  Facebook Google Twitter Vk Yandex Mail.ru

Anthrax - Raise Hell - текст песни, таба, видео

Печатать
Просмотров: 222
Anthrax – Raise Hell

I'll do the rest of this song soon! It's just that there is no other tab for
this! Contact me at: rattlehead.coolio@hotmail.com

/     - Slide up
\     - Slide down
PM|-| - Palm Mute

Intro:

  Gtr II
e|---------------------------------|
B|---------------------------------|
G|---------------------------------|
D|-----9-----9-----10\9-7/9---7/9--|
A|-----7-----7-----8-\7-5/7---5/7--|
E|-0-0---0-0---0-0----------0------|
PM|---| |---| |---|        |-|

  Gtr I                         (x3)
e|---------------------------------|
B|---------------------------------|
G|---------------------------------|
D|-----9---------------------------|
A|-----7---------------------------|
E|-----0---------------------------|
 |
 |Gtr II                        (x3)
e|---------------------------------|
B|---------------------------------|
G|---------------------------------|
D|-----9-----9-----10\9-7/9---7/9--|
A|-----7-----7-----8-\7-5/7---5/7--|
E|-0-0---0-0---0-0----------0------|
PM|---| |---| |---|        |-|

  Gtr I & II
e|---------------------------------|
B|---------------------------------|
G|---------------------------------|
D|-----9-----9-----10\9-7/9---7/9--|
A|-----7-----7-----8-\7-5/7---5/7--|
E|-0-0---0-0---0-0----------0------|
PM|---| |---| |---|        |-|

e|-----------------------------|
B|-----------------------------|
G|-----------------------------|
D|-----9---9---10\9-7/9---7/9--|
A|-----7---7---8-\7-5/7---5/7--|
E|-0-0------------------0------|
PM|---|                |-|

e|---------------------------------|
B|---------------------------------|
G|---------------------------------|
D|-----9-----9-----10\9-7/9---7/9--|
A|-----7-----7-----8-\7-5/7---5/7--|
E|-0-0---0-0---0-0----------0------|
PM|---| |---| |---|        |-|

e|-----------------------------|
B|-----------------------------|
G|-----------------------------|
D|-----9---9---10\9-7/9---7/9--|
A|-----7---7---8-\7-5/7---5/7--|
E|-0-0------------------0------|
PM|---|                |-|
Добавлено: 15.04.2012
Другие материалы по этой песне:
  • Аккорды и текст

Страница создана 15.04.2012
http://primanota.ru/anthrax/raise-hell-chords.htm
Привет, Гость.
Предлагаем пройти революционный курс по гитаре.
Подарок от PrimaNota.Ru, забирай!