PrimaNota.ru - самый крупный в мире бесплатный архив песенных текстов, аккордов, табулатур и нот


Anthrax - Random Acts - аккорды и текст, таба, видео

Регистрация Запомнить меня
Войти через:  Facebook Google Twitter Vk Yandex Mail.ru

Anthrax - Random Acts - аккорды и текст, таба, видео

Печатать
Просмотров: 130
Random Acts
Anthrax
		   Random Acts of Senseless Violence
                by Anthrax
                from the album "Stomp 442"
                words and music by Charlie Benante, John Bush, Scott Ian,
                        and Frank Bello
                tabbed by Tom Mallon


Dropped-D Tuning (DADBGE)

INTRO
E -----------------------------------------------------------
B -----------------------------------------------------------
G -----------------------------------------------------------
D --x-x----x-x-x----x-x-x----x-x-x---x-x-x---x-x-x---x-x-x---
A --x-x----x-x-x----x-x-x----x-x-x---x-x-x---x-x-x---x-x-x---
E --x-x----x-x-x----x-x-x----x-x-x---x-x-x---x-x-x---x-x-x---

VERSE
E -----------------------------------------------------------
B -----------------------------------------------------------
G -----------------------------------------------------------
D -----------------------------------------------------------
A --0--3p0--3p0--3p0--x-x-x-x-x------------------------------
E --0--3p0--3p0--3p0--x-x-x-x-x------------------------------

PRE-CHORUS
E -------------------|---------------------------------------
B -------------------|---------------------------------------
G -------------------|---------------------------------------
D -------------------|---------------------------------------
A -------------------|--0-3p0--3p0--3-5-3--------------------
E -0-3p0-3p0-3-5-3---|--0-3p0--3p0--3-5-3--------------------

CHORUS
E -----------------------------------------------------------
B -----------------------------------------------------------
G -----------------------------------------------------------
D -----------------------------------------------------------
A -0--3-/-888888888888888888---0--3-/-55555555555555555555---
E -0--3-/-888888888888888888---0--3-/-55555555555555555555---

BRIDGE
E -----------------------------------------------------------
B -----------------------------------------------------------
G -----------------------------------------------------------
D -----------------------------------------------------------
A -0--3--5--0-3-5p0--x-x-------------------------------------
E -0--3--5--0-3-5p0--x-x-------------------------------------

UNDER SOLO
E -----------------------------------------------------------
B -----------------------------------------------------------
G -----------------------------------------------------------
D -----------------------------------------------------------
A -0--3p0--3p0--3p0-----3--6p3--6p3--6p3---------------------
E -0--3p0--3p0--3p0-----3--6p3--6p3--6p3---------------------     
Добавлено: 16.12.2013
Другие материалы по этой песне:
  • Аккорды и текст

Страница создана 28.06.2012
http://primanota.ru/anthrax/random-acts-chords.htm
Привет, Гость.
Предлагаем пройти революционный курс по гитаре.
Подарок от PrimaNota.Ru, забирай!