PrimaNota.ru - самый крупный в мире бесплатный архив песенных текстов, аккордов, табулатур и нот


Anthrax - Superhero - текст песни, таба, видео

Регистрация Запомнить меня
Войти через:  Facebook Google Twitter Vk Yandex Mail.ru

Anthrax - Superhero - текст песни, таба, видео

Печатать
Просмотров: 120
Уроки эстрадного вокала в Санкт-Петербурге
SUPERHERO
As recorded by Anthrax (From the 2003 Album WE'VE COME FOR YOU ALL)


D5

0 0 x x x x     F5

3 3 x x x x     G5

5 5 x x x x     Bb5

8 8 x x x x


Gtr I (D A D G B E) - 'Untitled'

Gtr II (D A D G B E) - 'Untitled'

Gtr III (D A D G B E) - 'Untitled'

Gtr IV (D A D G B E) - 'Untitled'

Gtr V (D A D G B E) - 'Untitled'


 Intro
  Q=180
 4/4
  Gtr I
  W          W          +W
  |          |           |
  o          /           /

  Gtrs II, III
  W          W           W
|----------|----------|-------|
|----------|----------|-------|
|----------|----------|-------|
|----------|----------|-------|
|----------|----------|-------|
|----------|----------|-------|


  N.C.                                 C
  W                 +W                 W                 +W
  |                  |                 |                  |
  o                  /                 o                  /

  E E E E E E E E    E E E E E E E E   E E E E E E E E    E E E E E E E E
|-----------------|------------------|-----------------|-------------------|
|-----------------|------------------|-----------------|-------------------|
|-----------------|------------------|-----------------|-------------------|
|-----------------|------------------|-----------------|-------------------|
|---5-----5-----5-|----5-----5-------|---5-----5-----5-|----5-----5--------|
|-0---6-0---6-0---|------6-0---6-0---|-0---6-0---6-0---|------6-0---6-0----|


  N.C.                                                   F5       G5
  W                 +W                 W                 +W
  |                  |                 |                  |
  o                  /                 o                  /

  E E E E E E E E    E E E E E E E E   E E E E E E E E    E E E E E E E E
|-----------------|------------------|-----------------|-------------------|
|-----------------|------------------|-----------------|-------------------|
|-----------------|------------------|-----------------|-------------------|
|-----------------|------------------|-----------------|-------------------|
|---5-----5-----5-|----5-----5-------|---5-----5-------|--3-3-3-3-5-5-5-5--|
|-0---6-0---6-0---|------6-0---6-0---|-0---6-0---6-0-0-|--3-3-3-3-5-5-5-5--|


  N.C.
  W                 +W                 W                 +W
  |                  |                 |                  |
  o                  /                 o                  /

  E E E E E E E E    E E E E E E E E   E E E E E E E E    E E E E E E E E
|-----------------|------------------|-----------------|-------------------|
|-----------------|------------------|-----------------|-------------------|
|-----------------|------------------|-----------------|-------------------|
|-----------------|------------------|-----------------|-------------------|
|---5-----5-----5-|----5-----5-------|---5-----5-----5-|----5-----5--------|
|-0---6-0---6-0---|------6-0---6-0---|-0---6-0---6-0---|------6-0---6-0----|


  N.C.
  W                 +W                 W                 +W
  |                  |                 |                  |
  o                  /                 o                  /

  E E E E E E E E    E E E E E E E E   E E E E E E E E    E E E E E E E E
|-----------------|------------------|-----------------|-------------------|
|-----------------|------------------|-----------------|-------------------|
|-----------------|------------------|-----------------|-------------------|
|-----------------|------------------|-----------------|-------------------|
|---5-----5-----5-|----5-----5-------|---5-----5-----5-|------5-----5------|
|-0---6-0---6-0---|------6-0---6-0---|-0---6-0---6-0---|--6-0---6-0---6-0--|


  N.C.              F5       G5        D5
  Gtr I
  W                 +W                 W
  |                  |                 |
  o                  /                 o

  Gtrs II, III
  E E E E E E E E    E E E E E E E E   W
|-----------------|------------------|------------|
|-----------------|------------------|------------|
|-----------------|------------------|------------|
|-----------------|------------------|------------|
|-5-----5-----5---|--3-3-3-3-5-5-5-5-|-0----------|
|---6-0---6-0---6-|--3-3-3-3-5-5-5-5-|-0----------|
|
| Gtrs IV, V
|                                            ~~~~~~
| W                  W                 H     H
|-----------------|------------------|------------|
|-----------------|------------------|------------|
|-----------------|------------------|------------|
|-----------------|------------------|-0----10----|
|-----------------|------------------|------------|
|-----------------|------------------|------------|


  +W              W             +W
   |              |              |
   /              o              /

  +W             +W             +W
|--------------|--------------|--------------||
|--------------|--------------|--------------||
|--------------|--------------|--------------||
|--------------|--------------|--------------||
|-(0)----------|-(0)----------|-(0)----------||
|-(0)----------|-(0)----------|-(0)----------||
|
|~~~~~~~~~~~             ~~~~~~~~~~~~~~~~~
|  H      H       H      H       H      H
|--------------|--------------|--------------||
|--------------|--------------|--------------||
|--------------|--------------|--------------||
|--------10----|--0-----10----|--------10----||
|--8-----------|--------------|--8-----------||
|--------------|--------------|--------------||


 Verse
  N.C.
  Gtr I
  W            +W            W
  |             |            |
  o             /            /

  Gtrs IV, V
        ~~~~~~~~~~~~~~~~           ~~~~~~
  H     H       H     H      H     H
|------------|-------------|------------|
|------------|-------------|------------|
|------------|-------------|------------|
|-0----10----|-------10----|-0----10----|
|------------|--8----------|------------|
|------------|-------------|------------|


                $
  +W            W            +W
   |            |             |
   /            o             /

 ~~~~~~~~~~           ~~~~~~~~~~~~~~~~
   H     H      H     H       H     H
|-------------|------------|-------------|
|-------------|------------|-------------|
|-------------|------------|-------------|
|-------10----|-0----10----|-------10----|
|--8----------|------------|--8----------|
|-------------|------------|-------------|


  N.C.
  W            +W            W
  |             |            |
  o             /            /

        ~~~~~~~~~~~~~~~~           ~~~~~~
  H     H       H     H      H     H
|------------|-------------|------------|
|------------|-------------|------------|
|------------|-------------|------------|
|-0----10----|-------10----|-0----10----|
|------------|--8----------|------------|
|------------|-------------|------------|


  +W            W            +W
   |            |             |
   /            /             /

 ~~~~~~~~~~           ~~~~~~~~~~~~~~~~
   H     H      H     H       H     H
|-------------|------------|-------------|
|-------------|------------|-------------|
|-------------|------------|-------------|
|-------10----|-0----10----|-------10----|
|--8----------|------------|--8----------|
|-------------|------------|-------------|


  N.C.
   ~~~~~~~~~~~~~~~~~~~~~~~~~~~~~~~~~~~~~~~~~~~~~~~~~~~~~~~~~~
   E  E  +E   E  E  E  +E   E    E  E  +E   E  E  E  +E   E
|-----------------------------|-----------------------------|
|-----------------------------|-----------------------------|
|-----------------------------|-----------------------------|
|-12-12-(12)-12-12-12-(12)-12-|-12-12-(12)-12-12-12-(12)-12-|
|-----------------------------|-----------------------------|
|-----------------------------|-----------------------------|


 ~~~~~~~~~~~~~~~~~~~~~~~~~~~~~~~~~~~~~~~~~~~~~~~~~~~~~~~~~~~
   E  E  +E   E  E  E  +E   E    E  E  +E   E  E  E  +E   E
|-----------------------------|------------------------------|
|-----------------------------|------------------------------|
|-----------------------------|------------------------------|
|-12-12-(12)-12-12-12-(12)-12-|-12-12-(12)-12-12-12-(12)-12--|
|-----------------------------|------------------------------|
|-----------------------------|------------------------------|


  N.C.
   ~~~~~~~~~~~~~~~~~~~~~~~~~~~~~~~~~~~~~~~~~~~~~~~~~~~~~~~~~
   E  E  +E   E  E  E  +E   E    E  E  +E   E  E  E  +E   E
|-----------------------------|-----------------------------|
|-----------------------------|-----------------------------|
|-----------------------------|-----------------------------|
|-12-12-(12)-12-12-12-(12)-12-|-12-12-(12)-12-12-12-(12)-12-|
|-----------------------------|-----------------------------|
|-----------------------------|-----------------------------|


  G5                        N.C.
  Gtrs II, III
  E E E E E E E E   E E E E Q    +Q
|-----------------|--------------------||
|-----------------|--------------------||
|-----------------|--------------------||
|-----------------|--------------------||
|-5---------------|--------------------||
|-5-5-5-5-5-5-5-5-|-5-5-5-5-1b3--(1)---||


 Chorus
  $$
  N.C.
  E E E E E E E E   E E E E E E E E   E E E E E E E E   E E E E E E E E
|-----------------|-----------------|-----------------|------------------|
|-----------------|-----------------|-----------------|------------------|
|-----------------|-----------------|-----------------|------------------|
|-----------------|-----------------|-----------------|------------------|
|---5-----5-----5-|---5-----5-------|---5-----5-----5-|---5-----5--------|
|-0---6-0---6-0---|-----6-0---6-0---|-0---6-0---6-0---|-----6-0---6-0----|


  N.C.                                                  F5      G5
  E E E E E E E E   E E E E E E E E   E E E E E E E E   E E E E E E E E
|-----------------|-----------------|-----------------|------------------|
|-----------------|-----------------|-----------------|------------------|
|-----------------|-----------------|-----------------|------------------|
|-----------------|-----------------|-----------------|------------------|
|---5-----5-----5-|---5-----5-------|---5-----5-------|-3-3-3-3-5-5-5-5--|
|-0---6-0---6-0---|-----6-0---6-0---|-0---6-0---6-0-0-|-3-3-3-3-5-5-5-5--|


  N.C.
  Gtr I
  W                 +W                 W                 +W
  |                  |                 |                  |
  o                  /                 /                  /

  Gtrs II, III
  E E E E E E E E    E E E E E E E E   E E E E E E E E    E E E E E E E E
|-----------------|------------------|-----------------|-------------------|
|-----------------|------------------|-----------------|-------------------|
|-----------------|------------------|-----------------|-------------------|
|-----------------|------------------|-----------------|-------------------|
|---5-----5-----5-|----5-----5-------|---5-----5-----5-|----5-----5--------|
|-0---6-0---6-0---|------6-0---6-0---|-0---6-0---6-0---|------6-0---6-0----|


                                                                 To Coda
                                                                 To Coda
  N.C.                                                   F5       G5
  W                 +W                 W                 +W
  |                  |                 |                  |
  o                  /                 /                  /

  E E E E E E E E    E E E E E E E E   E E E E E E E E    E E E E E E E E
|-----------------|------------------|-----------------|-------------------|
|-----------------|------------------|-----------------|-------------------|
|-----------------|------------------|-----------------|-------------------|
|-----------------|------------------|-----------------|-------------------|
|---5-----5-----5-|----5-----5-------|---5-----5-------|--3-3-3-3-5-5-5-5--|
|-0---6-0---6-0---|------6-0---6-0---|-0---6-0---6-0-0-|--3-3-3-3-5-5-5-5--|


                                           D.S. al Coda
  D5
  Gtr I
  W            +W             +W             +W
  |             |              |              |
  o             /              /              /

  Gtrs II, III
  W            +W             +W             +W
|------------|--------------|--------------|---------------||
|------------|--------------|--------------|---------------||
|------------|--------------|--------------|---------------||
|------------|--------------|--------------|---------------||
|-0----------|-(0)----------|-(0)----------|-(0)-----------||
|-0----------|-(0)----------|-(0)----------|-(0)-----------||
|
| Gtrs IV, V
|       ~~~~~~~~~~~~~~~~~             ~~~~~~~~~~~~~~~~~
| H     H       H      H       H      H       H      H
|------------|--------------|--------------|---------------||
|------------|--------------|--------------|---------------||
|------------|--------------|--------------|---------------||
|-0----10----|--------10----|--0-----10----|--------10-----||
|------------|--8-----------|--------------|--8------------||
|------------|--------------|--------------|---------------||


  &
  N.C.
  Gtr I
  W                 +W                 W                 +W
  |                  |                 |                  |
  o                  /                 /                  /

  Gtrs II, III
  E E E E E E E E    E E E E E E E E   E E E E E E E E    E E E E E E E E
|-----------------|------------------|-----------------|-------------------|
|-----------------|------------------|-----------------|-------------------|
|-----------------|------------------|-----------------|-------------------|
|-----------------|------------------|-----------------|-------------------|
|---5-----5-----5-|----5-----5-------|---5-----5-----5-|----5-----5--------|
|-0---6-0---6-0---|------6-0---6-0---|-0---6-0---6-0---|------6-0---6-0----|


  N.C.                                                   F5       G5
  W                 +W                 W                 +W
  |                  |                 |                  |
  o                  /                 /                  /

  E E E E E E E E    E E E E E E E E   E E E E E E E E    E E E E E E E E
|-----------------|------------------|-----------------|-------------------||
|-----------------|------------------|-----------------|-------------------||
|-----------------|------------------|-----------------|-------------------||
|-----------------|------------------|-----------------|-------------------||
|---5-----5-----5-|----5-----5-------|---5-----5-------|--3-3-3-3-5-5-5-5--||
|-0---6-0---6-0---|------6-0---6-0---|-0---6-0---6-0-0-|--3-3-3-3-5-5-5-5--||


 Interlude
  N.C.
  E E E E E E E E   E E E E E E Q    E E E E E E E E   E E E E E E Q
|-----------------|----------------|-----------------|-----------------|
|-----------------|----------------|-----------------|-----------------|
|-----------------|-----------7----|-----------------|-----------7-----|
|-----------------|-----------6----|-----------------|-----------6-----|
|-----------------|-----------5----|-----------------|-----------5-----|
|-0-0-0-0-0-0-0-0-|-0-0-0-0-0------|-0-0-0-0-0-0-0-0-|-0-0-0-0-0-------|


  N.C.
  E E E E E E E E   E E E E E E Q    E E E E E E E E   E E E E E E +Q
|-----------------|----------------|-----------------|--------------------||
|-----------------|----------------|-----------------|--------------------||
|-----------------|-----------7----|-----------------|-----------7-(7)\---||
|-----------------|-----------6----|-----------------|-----------6-(6)\---||
|-----------------|-----------5----|-----------------|-----------5-(5)\---||
|-0-0-0-0-0-0-0-0-|-0-0-0-0-0------|-0-0-0-0-0-0-0-0-|-0-0-0-0-0----------||


   Bridge
    N.C.
    E E E E E E E E   E E E E E E +Q
||------------------|-------------------|
||o-----------------|-------------------|
||------------------|-----------7-(7)\--|
||------------------|-----------6-(6)\--|
||o-----------------|-----------5-(5)\--|
||--0-0-0-0-0-0-0-0-|-0-0-0-0-0---------|


  E E E E E E E E   E E E E E E +Q
|-----------------|--------------------||
|-----------------|-------------------o||
|-----------------|-----------7-(7)\---||
|-----------------|-----------6-(6)\---||
|-----------------|-----------5-(5)\--o||
|-0-0-0-0-0-0-0-0-|-0-0-0-0-0----------||


  F5                         D5   Bb5
  Gtrs II, III
  W             +H      +Q   Q    W               +W
|-------------|-----------------|---------------|-------------------|
|-------------|-----------------|---------------|-------------------|
|-------------|-----------------|---------------|-------------------|
|-------------|-----------------|---------------|-------------------|
|-3-----------|-(3)-----(3)--0--|-8-------------|-(8)---------------|
|-3-----------|-(3)-----(3)--0--|-8-------------|-(8)---------------|
|
| Gtr I
| TP TP TP TP    TP  TP  TP  TP   TP  TP  TP TP    TP   TP  TP  TP
| Q  Q  Q  Q     Q   Q   Q   Q    Q   Q   Q  Q     Q    Q   Q   Q
|-------------|-----------------|---------------|-------------------|
|-------------|-----------------|---------------|-------------------|
|-------------|-----------------|---------------|-------------------|
|-------------|-----------------|---------------|-------------------|
|-5--7--8--5--|--7---8--10---7--|-8--10--12--8--|-12---13--10--12---|
|-------------|-----------------|---------------|-------------------|


  N.C.
  Gtrs II, III
  E E E E E E E E   E E E E E E Q    E E E E E E E E   E E E E E E +Q
|-----------------|----------------|-----------------|--------------------|
|-----------------|----------------|-----------------|--------------------|
|-----------------|-----------7----|-----------------|-----------7-(7)\---|
|-----------------|-----------6----|-----------------|-----------6-(6)\---|
|-----------------|-----------5----|-----------------|-----------5-(5)\---|
|-0-0-0-0-0-0-0-0-|-0-0-0-0-0------|-0-0-0-0-0-0-0-0-|-0-0-0-0-0----------|


  F5                         D5   Bb5
  Gtrs II, III
  W             +H      +Q   Q     W                +W
|-------------|-----------------|-----------------|-------------------||
|-------------|-----------------|-----------------|-------------------||
|-------------|-----------------|-----------------|-------------------||
|-------------|-----------------|-----------------|-------------------||
|-3-----------|-(3)-----(3)--0--|--8--------------|-(8)---------------||
|-3-----------|-(3)-----(3)--0--|--8--------------|-(8)---------------||
|
| Gtr I
| TP TP TP TP    TP  TP  TP  TP    TP  TP  TP  TP    TP   TP  TP  TP
| Q  Q  Q  Q     Q   Q   Q   Q     Q   Q   Q   Q     Q    Q   Q   Q
|-------------|-----------------|-----------------|-------------------||
|-------------|-----------------|-----------------|-------------------||
|-------------|-----------------|-----------------|-------------------||
|-------------|-----------------|-----------------|-------------------||
|-5--7--8--5--|--7---8--10---7--|-10--12--13--12--|-13---15--13--15---||
|-------------|-----------------|-----------------|-------------------||


 Interlude
  N.C.
  Gtrs II, III
  E E E E E E E E   E E E E E E E E   E E E E E E E E   E E E E E E E E
|-----------------|-----------------|-----------------|------------------|
|-----------------|-----------------|-----------------|------------------|
|-----------------|-----------------|-----------------|------------------|
|-----------------|-----------------|-----------------|------------------|
|---5-----4-----3-|-----2-----1-----|---5-----4-----3-|-----2-----1------|
|-0---6-0---5-0---|-4-0---3-0---2-0-|-0---6-0---5-0---|-4-0---3-0---2-0--|
|
| Gtr I
| TP                TP                TP                TP
| W                 W                 W                 W
|-----------------|-----------------|-----------------|------------------|
|-----------------|-----------------|-----------------|------------------|
|-7---------------|-7---------------|-7---------------|-7----------------|
|-----------------|-----------------|-----------------|------------------|
|-----------------|-----------------|-----------------|------------------|
|-----------------|-----------------|-----------------|------------------|


  N.C.
  E E E E E E E E   E E E E E E E E
|-----------------|-----------------|
|-----------------|-----------------|
|-----------------|-----------------|
|-----------------|-----------------|
|---5-----4-----3-|-----2-----1-----|
|-0---6-0---5-0---|-4-0---3-0---2-0-|
|
| TP                TP
| W                 W
|-----------------|-----------------|
|-----------------|-----------------|
|-7---------------|-7---------------|
|-----------------|-----------------|
|-----------------|-----------------|
|-----------------|-----------------|


  E   E E E E E E E   +Q   +Q     +Q   +Q
|-------------------|------------------------|
|-------------------|------------------------|
|-------------------|------------------------|
|-------------------|------------------------|
|-----5-----4-------|------------------------|
|-0-----6-0---5-0-6-|-(6)--(6)b8--(6)--(6)---|
|
| TP              ~~~~~~~~
| H..             E   +W
|-------------------|------------------------|
|-------------------|------------------------|
|-7---------------8-|-(8)--------------------|
|-------------------|------------------------|
|-------------------|------------------------|
|-------------------|------------------------|


      D.S.S. al Dbl. Coda      &&
  N.C.
                            Gtr I
  W             W              W
                               |
                               o

                            Gtrs II, III
  Q  Q  Q  Q    Q  Q  Q  Q     E E E E E E E E
|-------------|-------------||-----------------|
|-------------|-------------||-----------------|
|-------------|-------------||-----------------|
|-------------|-------------||-----------------|
|-xs=xs=xs=xs=|=xs=xs=xs=x--||---5-----5-----5-|
|-xs=xs=xs=xs=|=xs=xs=xs=x--||-0---6-0---6-0---|


  +W                 W                 +W
   |                 |                  |
   /                 /                  /

   E E E E E E E E   E E E E E E E E    E E E E E E E E
|------------------|-----------------|------------------|
|------------------|-----------------|------------------|
|------------------|-----------------|------------------|
|------------------|-----------------|------------------|
|----5-----5-------|---5-----5-----5-|----5-----5-------|
|------6-0---6-0---|-0---6-0---6-0---|------6-0---6-0---|


  N.C.                                                   F5       G5
  W                 +W                 W                 +W
  |                  |                 |                  |
  o                  /                 /                  /

  E E E E E E E E    E E E E E E E E   E E E E E E E E    E E E E E E E E
|-----------------|------------------|-----------------|-------------------||
|-----------------|------------------|-----------------|-------------------||
|-----------------|------------------|-----------------|-------------------||
|-----------------|------------------|-----------------|-------------------||
|---5-----5-----5-|----5-----5-------|---5-----5-------|--3-3-3-3-5-5-5-5--||
|-0---6-0---6-0---|------6-0---6-0---|-0---6-0---6-0-0-|--3-3-3-3-5-5-5-5--||


 Outro
  N.C.
  Gtrs II, III
  E E E E E E E E   E E E E E E E E   E E E E E E E E   E E E E E E E E
|-----------------|-----------------|-----------------|------------------|
|-----------------|-----------------|-----------------|------------------|
|-----------------|-----------------|-----------------|------------------|
|-----------------|-----------------|-----------------|------------------|
|---5-----4-----3-|-----2-----1-----|---5-----4-----3-|-----2-----1------|
|-0---6-0---5-0---|-4-0---3-0---2-0-|-0---6-0---5-0---|-4-0---3-0---2-0--|


  N.C.
  E E E E E E E E   E E E E E E E E   E E E E E E E E   W
|-----------------|-----------------|-----------------|------*|
|-----------------|-----------------|-----------------|------*|
|-----------------|-----------------|-----------------|------*|
|-----------------|-----------------|-----------------|------*|
|---5-----4-----3-|-----2-----1-----|---5-----4-----3-|------*|
|-0---6-0---5-0---|-4-0---3-0---2-0-|-0---6-0---5-0-4-|------*|
Добавлено: 05.10.2015
Другие материалы по этой песне:
  • Аккорды и текст

Страница создана 23.03.2012
http://primanota.ru/anthrax/superhero-chords.htm
Привет, Гость.
Предлагаем пройти революционный курс по гитаре.
Подарок от PrimaNota.Ru, забирай!