PrimaNota.ru - самый крупный в мире бесплатный архив песенных текстов, аккордов, табулатур и нот


Anonymous - Mi Favorita - таба, видео

Регистрация Запомнить меня
Войти через:  Facebook Google Twitter Vk Yandex Mail.ru

Anonymous - Mi Favorita - таба, видео

Печатать
Просмотров: 76
Originally found this tab here
http://www.gtabs.org/tabpreview/v6cZxa8bkawZk69Ew3wcxn1Klq4awa0Zv69Jx60cvq5@/

E|-0--------------|----------------|------------|------0----0----|------0----3----|
B|------3----1----|-0--------------|------0-----|------0----0----|------0---------|
G|----------------|------2----0----|------------|------0----0----|------0---------|
D|-2----0---------|----------------|-4----------|----------------|----------------|
A|-----------3----|-2----0---------|------2-----|----------------|----------------|
E|----------------|-----------3----|-2----------|-0--------------|-0--------------|


E|-7--------6---7---8---|-7--------6---7---8---|-7---6---7---8---7---0---|-2---------2----|
B|------0---------------|------0---------------|-------------------------|------1---------|
G|------0---------------|------0---------------|-------------------------|------2---------|
D|----------------------|----------------------|-------------------------|----------------|
A|----------------------|----------------------|-------------------------|----------------|
E|-0--------------------|-0--------------------|-0-----------------------|-0--------------|


E|-5--------4---5---7---|-5--------4---5---7---|-5---4---5---7---5---2---|-5----3----3----|
B|------4---------------|------4---------------|-------------------------|------0----0----|
G|------4---------------|------4---------------|-------------------------|------0----0----|
D|-4--------------------|-4--------------------|-4-----------------------|----------------|
A|----------------------|----------------------|-------------------------|----------------|
E|----------------------|----------------------|-------------------------|-0--------------|


E|-7--------6---7---8---|-7--------6---7---8---|-7---6---7---8---7---12--|-12---0----0----|
B|------0---------------|------0---------------|-------------------------|------10---10---|
G|------0---------------|------0---------------|-------------------------|----------------|
D|----------------------|----------------------|-------------------------|------10---10---|
A|----------------------|----------------------|-------------------------|-0--------------|
E|-0--------------------|-0--------------------|-0-----------------------|----------------|


E|-8----0---5---7---8---|-7--------0---2---3---|-2------------0---2---|-0--------------|
B|----------------------|------0---------------|------0---4-----------|-0--------------|
G|------5---------------|------0---------------|------2---------------|-0--------------|
D|----------------------|----------------------|----------------------|-2--------------|
A|-0--------------------|----------------------|-2--------------------|------2---------|
E|----------------------|-0--------------------|----------------------|-----------3----|


E|-------3----|-7--------6---7---8---|-7--------6---7---8---|-7---6---7---8---7---0---|
B|------------|------0---------------|------0---------------|-------------------------|
G|------------|------0---------------|------0---------------|-------------------------|
D|------------|----------------------|----------------------|-------------------------|
A|------------|----------------------|----------------------|-------------------------|
E|-0----------|-0--------------------|-0--------------------|-0-----------------------|


E|----------------|-5--------4---5---7---|-5--------4---5---7---|-5---4---5---7---5---2---|
B|-7----0----7----|------4---------------|------4---------------|-------------------------|
G|----------------|------4---------------|------4---------------|-------------------------|
D|------7---------|-4--------------------|-4--------------------|-4-----------------------|
A|----------------|----------------------|----------------------|-------------------------|
E|-7--------------|----------------------|----------------------|-------------------------|


E|-5----3----3----|-7--------6---7---8---|-7--------6---7---8---|-7---6---7---8---7---12--|
B|------0----0----|------0---------------|------0---------------|-------------------------|
G|------0----0----|------0---------------|------0---------------|-------------------------|
D|----------------|----------------------|----------------------|-------------------------|
A|----------------|----------------------|----------------------|-------------------------|
E|-0--------------|-0--------------------|-0--------------------|-0-----------------------|


E|-12---0----0----|-8----0---5---7---8---|-7--------0---2---3---|-2------------0---2---|
B|------10---10---|----------------------|------0---------------|------0---4-----------|
G|----------------|------5---------------|------0---------------|------2---------------|
D|------10---10---|----------------------|----------------------|----------------------|
A|-0--------------|-0--------------------|----------------------|-2--------------------|
E|----------------|----------------------|-0--------------------|----------------------|


E|-0--------------|------------------------|-2---------2----|-5--------4---5---7---|
B|-0--------------|------0---1--0------0---|------0---------|------4---------------|
G|-0--------------|----------------3-------|------2---------|------4---------------|
D|-2--------------|------------------------|-1--------------|-4--------------------|
A|------2---------|------2-----------------|----------------|----------------------|
E|-----------3----|-0----------------------|----------------|----------------------|


E|-5---------3----|-3--------------------|-2---------2----|-5--------4---5---7---|
B|------4----0----|-0----0----0------0---|------0---------|------4---------------|
G|------4----0----|-0------------3-------|------2---------|------4---------------|
D|-4--------------|----------------------|-1--------------|-4--------------------|
A|----------------|------2---------------|----------------|----------------------|
E|----------------|-0--------------------|----------------|----------------------|


E|-5---------3----|-3----2---3---5---0---|-2---------2----|-8--------7---8---10--|
B|------4----0----|-0--------------------|------1---------|------7---------------|
G|------4----0----|-0--------------------|------2---------|------7---------------|
D|-4--------------|----------------------|-0--------------|-7--------------------|
A|----------------|----------------------|----------------|----------------------|
E|----------------|-0--------------------|----------------|----------------------|


E|-7--------------|-5----3----2----|-0--------------|-3----2----0----|------7----7--7----|
B|------0----0----|-0--------------|------1----1----|-0----1----1----|-4----0----0--0----|
G|-0----7----7----|----------------|------0----0----|-0----2----0----|-4----8----8--8----|
D|----------------|-5--------------|----------------|-2----0---------|-4-----------------|
A|----------------|----------------|-3--------------|-----------3----|-2-----------------|
E|----------------|----------------|----------------|----------------|-------------------|


E|-7----------|-7--------6---7---8---|-7--------6---7---8---|-7---6---7---8---7---0---|
B|-0-----8----|------0---------------|------0---------------|-------------------------|
G|-8----------|------0---------------|------0---------------|-------------------------|
D|------------|----------------------|----------------------|-------------------------|
A|------------|----------------------|----------------------|-------------------------|
E|------------|-0--------------------|-0--------------------|-0-----------------------|


E|----------------|-5--------4---5---7---|-5--------4---5---7---|-5---4---5---7---5---2---|
B|-7----0----7----|------4---------------|------4---------------|-------------------------|
G|----------------|------4---------------|------4---------------|-------------------------|
D|------7---------|-4--------------------|-4--------------------|-4-----------------------|
A|----------------|----------------------|----------------------|-------------------------|
E|-7--------------|----------------------|----------------------|-------------------------|


E|-5----3----3----|-7--------6---7---8---|-7--------6---7---8---|-7---6---7---8---7---12--|
B|------0----0----|------0---------------|------0---------------|-------------------------|
G|------0----0----|------0---------------|------0---------------|-------------------------|
D|----------------|----------------------|----------------------|-------------------------|
A|----------------|----------------------|----------------------|-------------------------|
E|-0--------------|-0--------------------|-0--------------------|-0-----------------------|


E|-12---0----0----|-8----0---5---7---8---|-7--------0---2---3---|-2------------0---2---|
B|------10---10---|----------------------|------0---------------|------0---4-----------|
G|----------------|------5---------------|------0---------------|------2---------------|
D|------10---10---|----------------------|----------------------|----------------------|
A|-0--------------|-0--------------------|----------------------|-2--------------------|
E|----------------|----------------------|-0--------------------|----------------------|


E|-0--------------|------------|-0--------------------|-0--------------------|-0-------0---4---2---0---|
B|-0--------------|------------|-0--------0---2---4---|-0--------0---2---4---|-----4-------------------|
G|-0--------------|------------|-1----1---------------|-1----1---------------|-------------------------|
D|-2--------------|------------|----------------------|----------------------|-------------------------|
A|------2---------|------------|----------------------|----------------------|-------------------------|
E|-----------3----|-0----------|-0--------------------|-0--------------------|-0-----------------------|


E|----------0---2---4---|-5--------4---2---0---|----------2---0-------|----------2---0-------|
B|-4--------------------|------2---------------|-4----------------2---|-4----------------2---|
G|------2---------------|------2---------------|------2---------------|------2---------------|
D|------4---------------|----------------------|------4---------------|------4---------------|
A|-2--------------------|----------------------|-2--------------------|-2--------------------|
E|----------------------|-2--------------------|----------------------|----------------------|


E|-------------------------|-0--------------------|-0--------------------|-0-------0---4---2---0---|
B|-0-----------------------|-0--------0---2---4---|-0--------0---2---4---|-----4-------------------|
G|-------------------------|-1----1---------------|-1----1---------------|-------------------------|
D|-------------------------|----------------------|----------------------|-------------------------|
A|-2---4---2---0-----------|----------------------|----------------------|-------------------------|
E|-----------------4---2---|-0--------------------|-0--------------------|-0-----------------------|


E|--------|-5----5--5----5----|-4---7---5---4---2---0---|-------------------------|
B|-2------|-7----7--7----7----|-5-----------------------|-4---2---0---------------|
G|-2------|-6----6--6----6----|-4-----------------------|-------------2---1-------|
D|--------|-------------------|-------------------------|---------------------4---|
A|-0------|-0-----------------|-------------------------|-2-----------------------|
E|--------|-------------------|-0-----------------------|-------------------------|


E|------0---------|------------|
B|------0---------|------------|
G|------1---------|------------|
D|-2--------------|------------|
A|----------------|------------|
E|-0--------------|------------|
Добавлено: 19.05.2016
Другие материалы по этой песне:

Страница создана 03.06.2012
http://primanota.ru/anonymous/mi-favorita-chords.htm
Привет, Гость.
Предлагаем пройти революционный курс по гитаре.
Подарок от PrimaNota.Ru, забирай!