PrimaNota.ru - самый крупный в мире бесплатный архив песенных текстов, аккордов, табулатур и нот


Anonymous - Romanza - таба, видео

Регистрация Запомнить меня
Войти через:  Facebook Google Twitter Vk Yandex Mail.ru

Anonymous - Romanza - таба, видео

Печатать
Просмотров: 269
Esta es una cancion popular de españa, creo, esta muy padre, y es un buen ejercicio para
el arpegeo y la velocidad de los dedos.
Esta dividida en dos partes, la segunda es más dificil, asi que no la recomiendo tanto.

El movimiento de la mano que toca las cuerdas es basicamente el miso durante toda la
con el pulgar se toca el bajeo y con el índice la primer cuerda, al mismo tiempo, luego con
índice, el medio y el anular se hace un arpegeo de las cuerdas 1-2-3 y cada vez que se 
por tercera vez la cuerda 1 se hace un bajeo.
Lo que hace a la cancion complicada es que siempre lleva un mismo ritmo, entonces los
pueden ser muy bruscos y dificiles... suerte

PARTE 1

e|-7-----7-----7-----7-----5-----3-----3-----2-----0-----0----------|
B|---0-----0-----0-----0-----0-----0-----0-----0-----0-----0--------|
G|-----0-----0-----0-----0-----0-----0-----0-----0-----0-----0------|
D|------------------------------------------------------------------|
A|------------------------------------------------------------------|
E|-0-----------------0-----------------0-----------------0----------|

e|-3-----7-----12-----12-----12-----12-----10-----8-----8-----7------|
B|---0-----0------0------0------0------0------0-----0-----5-----5----|
G|-----0-----0------0------0------0------0------0-----0-----5-----5--|
D|-------------------------------------------------------------------|
A|------------------------------------------------------0------------|
E|-------------0--------------------0--------------------------------|

e|-5-----5-----7-----8-----7-----8-----7-----11-----8-----7----------|
B|---5-----5-----5-----5-----7-----7-----7------7-----7-----7--------|
G|-----5-----5-----5-----5-----8-----8-----8------8-----8-----8------|
D|-------------------------------------------------------------------|
A|-------0-----------------7-----------------7-----------------------|
E|-------------------------------------------------------------------|

e|-7-----5-----3-----3-----2-----0-----2-----2-----2-----2-----3-----|
B|---0-----0-----0-----0-----0-----0-----0-----0-----0-----0-----0---|
G|-----0-----0-----0-----0-----0-----0-----2-----2-----2-----2-----2-|
D|-------------------------------------------------------------------|
A|-------------------------------------2-----------------2-----------|
E|-0-----------------0-----------------------------------------------|


e|-2-----0-----0-----0-----0-|
B|---0-----0-----0-----0-----|
G|-----2-----0-----0-----0---|
D|-------2-------------------|
A|-------------2-------------|
E|-------------------3-----0-|

El final tambien puede ser el acorde de Em
    EADGBe
Em: 022000

PARTE 2
Esta puede seguir a la parte 1 inmediatamente despues del final.

e|-4-----4-----4-----4-----2-----0-----------------------------------|
B|---0-----0-----0-----0-----0-----0---5-----4-----4-----4-----3-----|
G|-----1-----1-----1-----1-----1-----1---2-----2-----2-----2-----2---|
D|-----------------------------------------4-----4-----4-----4-----4-|
A|-------------------------------------0-----------------0-----------|
E|-0-----------------0-----------------------------------------------|

e|-------7-----7-----7-----7-----9-----7-----9-----7-----7-----7-----|
B|-4-------7-----7-----7-----7-----7-----7-----9-----9-----9-----9---|
G|---2-------8-----8-----8-----8-----8-----8-----9-----9-----9-----9-|
D|-----4-------------------------------------------------------------|
A|-------7-----------------7-----------------------------------------|
E|-------------------------------------------0-----------------0-----|

e|-9-----11-----12-----12-----12-----12-----11-----10-----9----------|
B|---9------9------9------9------9------9------9------9-----5--------|
G|-----9------9------9------9------9------9------9------9-----6------|
D|-------------------------------------------------------------------|
A|--------------------------------------------------------0----------|
E|--------------0--------------------0-------------------------------|

e|-9-----9-----9-----7-----5-----4-----4-----4-----4-----5-----2-----|
B|---5-----5-----5-----5-----5-----0-----0-----0-----0-----4-----4---|
G|-----6-----6-----6-----6-----6-----1-----1-----1-----1-----2-----2-|
D|-------------------------------------------------------------------|
A|-------------0-----------------------------------------------------|
E|-------------------------------0-----------------0-----------------|

e|-0-----0-----0-----0-|
B|---0-----0-----0-----|
G|-----1-----1-----1---|
D|-2-------------------|
A|-------2-------------|
E|-------------4-----0-|

El final tambien puede ser el acorde de E
    EADGBe
E:  022100
Добавлено: 28.05.2012
Другие материалы по этой песне:

Страница создана 22.02.2012
http://primanota.ru/anonymous/romanza-chords.htm
Привет, Гость.
Предлагаем пройти революционный курс по гитаре.
Подарок от PrimaNota.Ru, забирай!