PrimaNota.ru - самый крупный в мире бесплатный архив песенных текстов, аккордов, табулатур и нот


Anonymous - Dona Nobis Pacem - таба, видео

Регистрация Запомнить меня
Войти через:  Facebook Google Twitter Vk Yandex Mail.ru

Anonymous - Dona Nobis Pacem - таба, видео

Печатать
Просмотров: 456
The time signature for this piece is 3/4. 


E-|------------------|------------------|----------------|----------------|
B-|------------------|------------------|----------------|----------------|
G-|-----------2------|--------------4---|----2-----------|--------------- |
D-|-------3- --------|-----5------------|--------5--3----|--3---2---------|
A-|-----------3------|---------3--------|----------------|----------------|
E-|------------------|------------------|----------------|----------------|
     Do - - na           no   -   bis        pacem,          pacem.     


E-|------------------|--------------|-------------------|---------|
B-|------------------|--------------|-------------------|---------|
G-|--7--5--4--2------|--5--4--2-----|-----2-------------|---------|
D-|---------------5--|--------------|---------5--3--2-- |---3-----|
A-|------------------|--------------|-------------------|---------|
E-|------------------|--------------|-------------------|---------|
    Do - na               no - bis       pa - - -  -         cem.

E-|-------------|-----------------|------------|--------------------|
B-|-------------|-----------------|------------|--------------------|
G-|--5----------|-----5-----------|---5--4---2-|--------2-----------|
D-|-------------|-----------------|------------|---------------5----|
A-|-------------|-----------------|------------|--------------------|
E-|-------------|-----------------|------------|--------------------|
     Do -            na              no -  bis       pa - cem.      

E-|----------------|-----------------|-----------------|--------|
B-|----------------|-----------------|-----------------|--------|
G-|-----7----7-----|-----5------5----|----5--4---2-----|--------|
D-|----------------|-----------------|---------------5-|---3----|
A-|----------------|-----------------|-----------------|--------|
E-|----------------|-----------------|-----------------|--------|
       Do  - na         no - bis             pa  -        cem.



E-|---------------|--------------|-------------------|---------------|
B-|---------------|--------------|-------------------|---------------|
G-|---------------|--------------|------------2---4--|----5----------|
D-|--3------------|---2----------|---3---5-----------|---------------|
A-|---------------|--------------|-------------------|---------3-----|
E-|---------------|--------------|-------------------|---------------|
     Do --            na               nobis             pa - cem.   


E-|------------|---------------|--------------------|----------|
B-|------------|---------------|--------------------|----------|
G-|----4----4--|----2-----2----|----------5---------|----------|
D-|------------|---------------|---2--5-------------|---3------|
A-|------------|---------------|----------------3---|----------|
E-|------------|---------------|--------------------|----------|
    Do - na       no - bis       pa  - -                cem.
Добавлено: 13.06.2012
Другие материалы по этой песне:

Страница создана 21.03.2012
http://primanota.ru/anonymous/dona-nobis-pacem-chords.htm
Привет, Гость.
Предлагаем пройти революционный курс по гитаре.
Подарок от PrimaNota.Ru, забирай!