PrimaNota.ru - самый крупный в мире бесплатный архив песенных текстов, аккордов, табулатур и нот


Anonymous - Morlo - таба, видео

Регистрация Запомнить меня
Войти через:  Facebook Google Twitter Vk Yandex Mail.ru

Anonymous - Morlo - таба, видео

Печатать
Просмотров: 156
Well this is my first tab, and its a song on my album that i just made up so enjoy

E-----------------------------------------------------------|
B-----------------------------------------------------------|
G-----------------------------------------------------------|
D-----------------------------------------------------------|
A-----0-0-0-3-3-3-3-3---------------0-0-0-3-3-3-3-3---------|
E--------------------0-0-0-3-3-3-3-3---------------0-0-0-3--|b

E-----------------------------------|
B-----------------------------------|
G-5-5-5/7-7-7-7-7--6-6-6/8-8-8-8-8--| x2
D-5-5-5/7-7-7-7-7--6-6-6/8-8-8-8-8--|
A-3-3-3/5-5-5-5-5--4-4-4/6-6-6-6-6--|
E-----------------------------------|

E-----------------------------------------|
B--------------------------------XXXXXXX--|
G-12-11-9-9-7---------11-9-8-8-6-XXXXXXX--|
D-12-11-9-9-7-XXXXXXX-11-9-8-8-6-XXXXXXX--| x2
A-10- 9-7-7-5-XXXXXXX- 9-7-6-6-4----------|
E-------------XXXXXXX---------------------|

E---------------------------------------------------------|
B---------------------------------------------------------|
G-0-0-0-3-3-3-3-3----------------0-0-0-3-3-3-3-3----------|
D-----------------0-0-0-3b-3-3-3-----------------0-0-0-3--|b
A---------------------------------------------------------|
E---------------------------------------------------------|

E---------------------------------------|
B-7-7-7/9-9-9-9-9--8-8-8/10-10-10-10-10-|
G-7-7-7/9-9-9-9-9--8-8-8/10-10-10-10-10-|
D-5-5-5/7-7-7-7-7--6-6-6/ 8- 8- 8- 8- 8-|
A---------------------------------------|
E---------------------------------------|

E------------------------------------------|
B-7-7-7/9-9-9-9-9--8-8-8/10-10-10-10-10/19-|
G-7-7-7/9-9-9-9-9--8-8-8/10-10-10-10-10/19-|
D-5-5-5/7-7-7-7-7--6-6-6/ 8- 8- 8- 8- 8/17-|
A------------------------------------------|
E------------------------------------------|

E--------------------------------------------------------------------------|
B-19-19-19-19-19-19-19-19-19-19-19-19--17-17-17-17-17-17-17-17-17-17-17-17-|
G-19-19-19-19-19-19-19-19-19-19-19-19--17-17-17-17-17-17-17-17-17-17-17-17-|
D-17-17-17-17-17-17-17-17-17-17-17-17--15-15-15-15-15-15-15-15-15-15-15-15-|
A--------------------------------------------------------------------------|
E--------------------------------------------------------------------------|

E--------------------------------------------------------------------------|
B-15-15-15-15-15-15-15-15-15-15-15-15--20-20-20-19-19-19-17-17-17-18-18-18-|
G-15-15-15-15-15-15-15-15-15-15-15-15--20-20-20-19-19-19-17-17-17-18-18-18-|
D-13-13-13-13-13-13-13-13-13-13-13-13--18-18-18-17-17-17-15-15-15-16-16-16-|
A--------------------------------------------------------------------------|
E--------------------------------------------------------------------------|

E-------------------------------------------------------------------------|
B-19-19-19-19-19-19-19-19-20-20-20-20-20-20-20-20-21-21-21-21-21-21-21-21-|
G-19-19-19-19-19-19-19-19-20-20-20-20-20-20-20-20-21-21-21-21-21-21-21-21-|
D-17-17-17-17-17-17-17-17-18-18-18-18-18-18-18-18-19-19-19-19-19-19-19-19-|
A-------------------------------------------------------------------------|
E-------------------------------------------------------------------------|

E-----------------2-0-0-0-0---------------1-0-0-0-0---------------|
B-21/3------------3-2-2-0-2---------------3-2-2-0-2---------------|
G-21/3--5-5-5-3---2-2-0-0-0---------------2-2-0-1-2---------------|
D-19/1--5-5-5-3---0-2-2-2-2---------------0-2-2-2-2---------------|
A-------3-3-3-1-----0-0-2-0-----------------0-0-2-0---------------|
E-----------------------0---3-3-3-3-3-3-3-------0---5-5-5-5-5-5-5-|

E----------------------------------------------------------|
B----------------------------------------------------------|
G-0-0-0-3-3-3-3-3-----------------0-0-0-3-3-3-3-3----------|
D------------------0-0-0-3b-3-3-3-----------------0-0-0-3--|b
A----------------------------------------------------------|
E----------------------------------------------------------|

b=bend
/=slide
X=palm mute
Добавлено: 02.04.2012
Другие материалы по этой песне:
  • Аккорды и текст

Страница создана 02.04.2012
http://primanota.ru/anonymous/morlo-chords.htm
Привет, Гость.
Предлагаем пройти революционный курс по гитаре.
Подарок от PrimaNota.Ru, забирай!