PrimaNota.ru - самый крупный в мире бесплатный архив песенных текстов, аккордов, табулатур и нот


Anna Tsuchiya - Lucy - текст песни, бас-таба, видео

Регистрация Запомнить меня
Войти через:  Facebook Google Twitter Vk Yandex Mail.ru

Anna Tsuchiya - Lucy - текст песни, бас-таба, видео

Печатать
Просмотров: 470
Black Stones - Lucy [NANA OST] Bass Tab
Tuning Standard

G|------------------------------|
A|------------------------------|
D|----------------------6666666-| x2
E|-11111-44444444-66666---------|

G|--------------------------------------------|
D|--------------------------------------------|
A|---------------6-----------------------4-66-|
E|-1111-0000-444---6-6/8---1111-0000-444------|

G|----------------------------------------------------------------------|
D|----------------------------------------------------------------------|
A|-------------------55555555-33333333-2222222222222222-11111111-4-6-66-| x2
E|-11111111-00000000----------------------------------------------------|

G|------797---------575--------464---------------|
D|----------75----------64---------64------------|
A|--55-----------44---------3---------3333333333-|
E|-5------------4----------4-4-------------------|

G|---------------------------|
A|---------------------------|
D|-------111111-------333333-| x2
E|-33333--------11111--------|

G|------------------------------|
A|------------------------------|
D|-------1~~~~~-----------------|
E|-33333------------------------|(let ring)

G|----------------------------------------------|
D|----------------------------------------------|
A|---------------6------------------------------|
E|-1111-0000-444---6-6/8---1111-0000-444-6666/8-|

G|--------------------------------------------|
D|--------------------------------------------|
A|---------------6-----------------------4-66-|
E|-1111-0000-444---6-6/8---1111-0000-444------|


G|----------------------------------------------------------------------|
D|----------------------------------------------------------------------|
A|-------------------55555555-33333333-2222222222222222-11111111-4-6-66-| x2
E|-11111111-00000000----------------------------------------------------|

G|------797---------575--------464---------------|
D|----------75----------64---------64------------|
A|--55-----------44---------3---------3333333333-|
E|-5------------4----------4-4-------------------|

G|---------------------------|
A|---------------------------|
D|-------111111-------333333-| x2
E|-33333--------11111--------|

G|-------------------------------------------------|
A|-------------------------------------------------|
D|-------1111111/-11-11-11-11-11-11-11-(son onces)-|
E|-33333-------------------------------------------|

G|----------------------------------------------------------------|
A|----------------------------------------------------------------|
D|-55-------6-33----55-------3333--55-------6-----34444434434444--|
E|----6-333------4-----6-333----------6-333--66-3-----------------|

G|-----------------------------------6------------------------|
A|-------------------------------------86---------------------|
D|---------------------------------------86-------------------|
E|1111111111111111444444444444466666-------678888888888-------|


G|---------------------------|
A|---------------------------|
D|-------111111-------333333-| x3
E|-33333--------11111--------|

G|-------------------------------------------------|
A|-------------------------------------------------|
D|-------1111111/-11-11-11-11-11-11-11-(son onces)-|
E|-33333-------------------------------------------|

G|------------------------------|
A|------------------------------|
D|----------------------6666666-| x2
E|-11111-44444444-66666---------|

G|--------------------------------------------|
D|--------------------------------------------|
A|---------------6----------------------------|
E|-1111-0000-444---6-6/8---1~~~~~~~-----------| (let ring)

**********************************************************
Si te gusta bien...y si no, mala cuea noma...
ta correcta en mas de un 90% lo unico q le falta 
son unos arreglos q me dio paja ponerselos
Bass tab by Aion
Made in Chile
Sayounara!
Добавлено: 23.05.2012
Другие материалы по этой песне:
  • Аккорды и текст

Страница создана 23.05.2012
http://primanota.ru/anna-tsuchiya/lucy-chords.htm
Привет, Гость.
Предлагаем пройти революционный курс по гитаре.
Подарок от PrimaNota.Ru, забирай!