PrimaNota.ru - самый крупный в мире бесплатный архив песенных текстов, аккордов, табулатур и нот


Anna Tsuchiya - U - аккорды и текст, видео

Регистрация Запомнить меня
Войти через:  Facebook Google Twitter Vk Yandex Mail.ru

Anna Tsuchiya - U - аккорды и текст, видео

Печатать
Просмотров: 336
U
Anna Tsuchiya
Anna Tsuchiya - U
 CAPO 1

Red clouds in the east I opened my eyes
E|-------------------------------|E
B|-------------------------------|G
G|-------------------------------|B 
D|--3-3-3-0--3-3--0--3-3-0-3-----|D 
A|--3-3-3-0--3-3—-0--3-3-0-3-----|A
E|--0-0-0-0--0-0--0--0-0-0-0-----|E

Bloody battlefield, when can I find you
E|-------------------------------|E
B|-------------------------------|G
G|-------------------------------|B 
D|--3-3-3-0--3-3--0--3-3-0-3-----|D 
A|--3-3-3-0--3-3—-0--3-3-0-3-----|A
E|--0-0-0-0--0-0--0--0-0-0-0-----|E

I was lost in grief. Tears came from my eyes
E|-------------------------------|E
B|-------------------------------|G
G|-------------------------------|B 
D|--3-3-3-0--3-3--0--3-3-0-3-----|D 
A|--3-3-3-0--3-3—-0--3-3-0-3-----|A
E|--0-0-0-0--0-0--0--0-0-0-0-----|E

No need to draw blood anymore
E|---------------------------|E
B|---------------------------|G
G|--3-3--3-3-0--3-3-3--------|B 
D|--3-3--3-3-0--3-3-3--------|D 
A|--3-3--3-3-0--3-0—0--------|A
E|--0-0--0-0-0--0------------|E

Sad eyes follow me. And I think I'm falling
E|-------------------------------|E
B|-------------------------------|G
G|-------------------------------|B 
D|--3-3-3-0--3-3--0--3-3-0-3-----|D 
A|--3-3-3-0--3-3—-0--3-3-0-3-----|A
E|--0-0-0-0--0-0--0--0-0-0-0-----|E

I lost my armor during the battle
E|-------------------------------|E
B|-------------------------------|G
G|-------------------------------|B 
D|--3-3-3-0--3-3--0--3-3-0-3-----|D 
A|--3-3-3-0--3-3—-0--3-3-0-3-----|A
E|--0-0-0-0--0-0--0--0-0-0-0-----|E

Please don't leave me alone. I can't stop my pain.
E|-------------------------------|E
B|-------------------------------|G
G|-------------------------------|B 
D|--3-3-3-0--3-3--0--3-3-0-3-----|D 
A|--3-3-3-0--3-3—-0--3-3-0-3-----|A
E|--0-0-0-0--0-0--0--0-0-0-0-----|E

Breathe world of love
E|---------------------------|E
B|---------------------------|G
G|--3-3--3-3-0--3-3-3--------|B 
D|--3-3--3-3-0--3-3-3--------|D 
A|--3-3--3-3-0--3-0—0--------|A
E|--0-0--0-0-0--0------------|E
	     
Em
Savage world in which you live
G                   Am
Suddenly, dark sky chasing me.

CHORUS
G		     Em	
You know your God is watching you
G 		           Em
Floating down from the sky calling you
G		       	   Em
Just a little while I wanna be with you
G		      Am          D
Wiping away all of my tears, for you

Can you feel me now? Can you see me?
E|-------------------------------|E
B|-------------------------------|G
G|-------------------------------|B 
D|--3-3-3-0--3-3--0--3-3-0-3-----|D 
A|--3-3-3-0--3-3—-0--3-3-0-3-----|A
E|--0-0-0-0--0-0--0--0-0-0-0-----|E

Pulled the trigger and Say good-by
E|-------------------------------|E
B|-------------------------------|G
G|-------------------------------|B 
D|--3-3-3-0--3-3--0--3-3-0-3-----|D 
A|--3-3-3-0--3-3—-0--3-3-0-3-----|A
E|--0-0-0-0--0-0--0--0-0-0-0-----|E

Please take me to my grave, if you're my angel
E|-------------------------------|E
B|-------------------------------|G
G|-------------------------------|B 
D|--3-3-3-0--3-3--0--3-3-0-3-----|D 
A|--3-3-3-0--3-3—-0--3-3-0-3-----|A
E|--0-0-0-0--0-0--0--0-0-0-0-----|E

No need to drop tears anymore
E|---------------------------|E
B|---------------------------|G
G|--3-3--3-3-0--3-3-3--------|B 
D|--3-3--3-3-0--3-3-3--------|D 
A|--3-3--3-3-0--3-0—0--------|A
E|--0-0--0-0-0--0------------|E

Em
Savage world in which you live
G                  Am
Suddenly, dark sky chasing me.

CHORUS
G		 Em	
I know my god is taking you
G		       Em	
Save me from the dark. I'm losing you
G		     Em	
All I want to say is loving you
G		        Am          D
Wiping away all of your tears, for you

Em	G           Em  
Fallen angel kissed me, 
G 	        Em    
Holding my last breath.
G       Em	       Am   D
Fallen angel cried for me.

Love is sweet torment
E|-------------------------------|E
B|-------------------------------|G
G|-------------------------------|B 
D|--3-3-3-0--3-3--0--3-3-0-3-----|D 
A|--3-3-3-0--3-3—-0--3-3-0-3-----|A
E|--0-0-0-0--0-0--0--0-0-0-0-----|E

My love for him has never died
Em			  Am

Does love last forever 
Em

   Or is it ephemeral?
E|---------------------------|E
B|---------------------------|G
G|--3-3--3-3-0--3-3-3--------|B 
D|--3-3--3-3-0--3-3-3--------|D 
A|--3-3--3-3-0--3-0—0--------|A
E|--0-0--0-0-0--0------------|E

CHORUS
You know your God is watching you
Floating down from the sky • calling you
Just a little while I want to be with you
Wiping away all of my tears, for you

Fallen angel kissed me, Holding my last breath.
Fallen angel cried for me.
Добавлено: 24.05.2012
Другие материалы по этой песне:
  • Аккорды и текст

Страница создана 24.05.2012
http://primanota.ru/anna-tsuchiya/u-chords.htm
Привет, Гость.
Предлагаем пройти революционный курс по гитаре.
Подарок от PrimaNota.Ru, забирай!