PrimaNota.ru - самый крупный в мире бесплатный архив песенных текстов, аккордов, табулатур и нот


Animals As Leaders - Inamorata - таба, видео

Регистрация Запомнить меня
Войти через:  Facebook Google Twitter Vk Yandex Mail.ru

Animals As Leaders - Inamorata - таба, видео

Печатать
Просмотров: 52
-------------------------------------------------------------------------------
                            Inamorata - Animals as Leaders
-------------------------------------------------------------------------------
Tabbed by: guitarzack1
E-mail:

How to play the intro on a 6 string guitar


e|-----------------------------------------------------|
B|-------------------16--------------------------------|
G|----------------13-----13----------------------------|
D|-------13--9/11------------11\9--13------------------|
A|----11------------------------------11---------------|
E|--9--------------------------------------------------|


e|-----------------------------------------------------|
B|-------------------16--------------------------------|
G|----------------13-----13----------------------------|
D|-------13--9/11------------11\9--13------------------|
A|----11------------------------------11---------------|
E|--9--------------------------------------------------|

e|-----------------------------------------------------|
B|-------------------16--------------------------------|
G|----------------13-----13----------------------------|
D|-------13--9/11------------11\9--13------------------|
A|----11------------------------------11---------------|
E|--9--------------------------------------------------|


e|-----------------------------------------------------|
B|-------------------16--------------------------------|
G|----------------13-----13----------------------------|
D|-------13--9/11------------11\9--13------------------|
A|----11------------------------------11---------------|
E|--9--------------------------------------------------|

e|-----------------------------------------------------|
B|-------------------16--------------------------------|
G|----------------13-----13----------------------------|
D|-------13--9/11------------11\9--13------------------|
A|----11------------------------------11---------------|
E|--9--------------------------------------------------|

e|-----------------------------------------------------------------------------------|
B|-----------------------------------------------------------------------------------|
G|------------------13/14----------16/18-------------20/21---------------------------|
D|-------13------11-------------14-------16-------18-------19----21-------16---------|
A|----11----11\9----------14\12-------------14/16-------------17----19-------14------|
E|--9-------------------------------------------------------------------17------12---|



************************************

| /   slide up
| \   slide down
| h   hammer-on
| p   pull-off
| ~   vibrato
| +   harmonic
| x   Mute note
| b   Bend
| pb  Pre-bend
| br  Bend release
| pbr Pre-bend release
| brb Bend release bend

************************************
Добавлено: 23.05.2016
Другие материалы по этой песне:

Страница создана 11.05.2012
http://primanota.ru/animals-as-leaders/inamorata-chords.htm
Привет, Гость.
Предлагаем пройти революционный курс по гитаре.
Подарок от PrimaNota.Ru, забирай!