PrimaNota.ru - самый крупный в мире бесплатный архив песенных текстов, аккордов, табулатур и нот


Animals As Leaders - On Impulse - таба, видео

Регистрация Запомнить меня
Войти через:  Facebook Google Twitter Vk Yandex Mail.ru

Animals As Leaders - On Impulse - таба, видео

Печатать
Просмотров: 287
Animals as Leaders
On Impulse
From the album 'Animals as Leaders'
6 string version
Charted/Tabbed by Ethan Crisp
Youtube: www.youtube.com/channel/UCZ1D3ZJr_dW9B-7D5lerAxg
The Key of the song is a 6th as the intro 'shape' is a A6 but is played in the position
of a C#6

This is the main riff of 'On Impulse' and I may to the full song soon

This is my first tab and it is I think extremely accurate

CBA trying to wright the rhythm so figure it out yourself
It took me one guitar teacher , a guitar pro tab and the software transcribe to
get this tab so enjoy :D

The main tip for getting it to sound right is to play with a reverb effect but also it 
let the notes ring out for as long as you can.(After playing a note , dont immediately 
take it off)
Standard Tuning:

Main Riff 1:
(when sliding from 7 to 9 I slide with my pinky then like roll onto my index finger (im
strange I know) but it is awkard)

e|------------------------7~~9----------------------------------7--5------|
B|------------7--------5--------9-----10--------9--------5--7-------------|
G|---------6--------6--------------9------9~~7----------------------------|
D|------6--------4---------------------------------4--6-------------------|
A|------------------------------------------------------------------------|
E|---5--------------------------------------------------------------------|

Main Riff 2:

e|-------------------------7~~9-------------------------------------------|
B|-------------7--------5--------9-----10---------9--------------6--------|
G|----------6--------6--------------9------9~~7-----------6--------7------|
D|-------6--------4-------------------------------------------6--------9--|
A|---------------------------------------------------9--8-----------------|
E|---5--------------------------------------------------------------------|

e|---5-------------------7---------------------------------------|
B|------6----------6---------------------------------------------|
G|---------7----------7------------------------------------------|
D|------------9--6-----------------------------------------------|
A|---------------------------------------------------------------|
E|---------------------------------------------------------------|

It is awkward I know but it helps your hand positions , rolling and sweep picking (if
you want to)

Extra:
When Tosin plays it , he picks the 5 on the E string and lets it ring
 while using his other fingers to pick the remaining notes and then
does the same on the 6 (3rd 6/ 2nd) on the G string
Добавлено: 25.10.2013
Другие материалы по этой песне:

Страница создана 28.03.2012
http://primanota.ru/animals-as-leaders/on-impulse-chords.htm
Привет, Гость.
Предлагаем пройти революционный курс по гитаре.
Подарок от PrimaNota.Ru, забирай!