PrimaNota.ru - самый крупный в мире бесплатный архив песенных текстов, аккордов, табулатур и нот


Animals As Leaders - Cafo - таба, бас-таба, видео

Регистрация Запомнить меня
Войти через:  Facebook Google Twitter Vk Yandex Mail.ru

Animals As Leaders - Cafo - таба, бас-таба, видео

Печатать
Просмотров: 586
heres the ascending lick, which is already on here, but also the descending lick which 
is pretty sought after, as tosin didnt teach it in his video, ill eventually tab out the 
whole song when i have time..

tuning is (low to high) B,D,A,D,G,B,E

(the ascend)
---------------------------------------------------------------------------|
---------------------------------------------------------------------------|
---------------------------------------------------------------------------|
---------------------------------------------------------------------------|
------------------------------------------7h--9h--t14--t16-----------------|
-2h--4h--t9--t11--9h--11h--12h--t14--t16-----------------------------------|


---------------------------------------------------------------------------|
---------------------------------------------------------------------------|
--------------------------9h--11h--12h--t16--t18---------------------------|
--9h--11h--12h--t14--t16---------------------------------------------------|
---------------------------------------------------------------------------|
---------------------------------------------------------------------------|


--------------------------12h--14h--15h--t19--t21--------------------------|
-12h--14h--15h--t17--t19---------------------------------------------------|
---------------------------------------------------------------------------|
---------------------------------------------------------------------------|
---------------------------------------------------------------------------|
---------------------------------------------------------------------------|

(and the descend)
------------------------------------15h--12h-------------------------------|
------19h--17h--11h--17h--14h--11h------------14h--11h---------------------|
-11h----------------------------------------------------9h--11h--12h--16h--|
---------------------------------------------------------------------------|
---------------------------------------------------------------------------|
---------------------------------------------------------------------------|

---------------------------------------------------------------------------|
---------------------------------------------------------------------------|
-18h-----------------------------------------------------------------------|
-----11----------11----------12---------------------(repeat all that)------|
---------16----------16----------14--11------------------------------------|
-------------16----------16--------------14--------------------------------|
Добавлено: 23.05.2012
Другие материалы по этой песне:

Страница создана 20.04.2012
http://primanota.ru/animals-as-leaders/cafo-chords.htm
Привет, Гость.
Предлагаем пройти революционный курс по гитаре.
Подарок от PrimaNota.Ru, забирай!