PrimaNota.ru - самый крупный в мире бесплатный архив песенных текстов, аккордов, табулатур и нот


Angels & Airwaves - The Disease - таба, видео

Регистрация Запомнить меня
Войти через:  Facebook Google Twitter Vk Yandex Mail.ru

Angels & Airwaves - The Disease - таба, видео

Печатать
Просмотров: 100
Уроки эстрадного вокала в Санкт-Петербурге
-------------------------------------------------------------------------------
                             THE DISEASE - Angels and Airwaves
-------------------------------------------------------------------------------
Tabbed by: Liam Gill (flimbiscuit)
E-mail: liamgill12@yahoo.com
Hi, this is my first tab on UG. There is not a large amount of guitar in the entire song except for a few
power chords, but I decided to tab my favorite part of the song, which is the little bridge/solo part
starting at 2:46 and ending at 3:20. I am certain this is accurate. Thanks!

Tuning: Standard

e|---------------------------------------------------------------------------|
B|---------------------------------------------------------------------------|
G|-------------------10-----------------10--10b11-10\6--6--5-3-3-------------|
D|--8-----6-----8---------8-----6-----8--------------------------------------|
A|---------------------------------------------------------------------------| 
E|---------------------------------------------------------------------------|

e|---------------------------------------------------------------------------|
B|---------------------------------------------------------------------------|
G|-------------------10-----------------10--10b11-10\6--6--8--8--10--10--10--|
D|--8-----6-----8---------8-----6-----8--------------------------------------|
A|---------------------------------------------------------------------------|
E|---------------------------------------------------------------------------|

e|---------------------------------------------------------------------------|
B|---------------------------------------------------------------------------|
G|--11--11-------------------------------------------------------------------|
D|---------------------------------------------------------------------------|
A|---------------------------------------------------------------------------|
E|---------------------------------------------------------------------------|

Before the distorted section above comes in and during it, there is a little rhythm that plays. I am not 
sure whether or not it's bass or guitar, but I figured it out on guitar, so here it is. There may be a few
mistakes, but this is more or less what it is. There is also an echo effect on with this.
e|---------------------------------------------------------------------------|
B|---------------------------------------------------------------------------|
G|---------------------------------------------------------------------------|
D|---------------------------------------------------------------------------|
A|--11-11-11--9--8--4-4-4-4-4-4-4-4--6-8-8-8-8-8-8-8-8--6-6-6-6-6-6-6-6------|
E|---------------------------------------------------------------------------|



************************************

| /   slide up
| \   slide down
| h   hammer-on
| p   pull-off
| ~   vibrato
| +   harmonic
| x   Mute note
| b   Bend
| pb  Pre-bend
| br  Bend release
| pbr Pre-bend release
| brb Bend release bend

************************************
Добавлено: 21.11.2015
Другие материалы по этой песне:
  • Аккорды и текст

Страница создана 21.11.2015
http://primanota.ru/angels-and-airwaves/disease-chords.htm
Привет, Гость.
Предлагаем пройти революционный курс по гитаре.
Подарок от PrimaNota.Ru, забирай!