PrimaNota.ru - самый крупный в мире бесплатный архив песенных текстов, аккордов, табулатур и нот


Angels & Airwaves - View From Below - таба, видео

Регистрация Запомнить меня
Войти через:  Facebook Google Twitter Vk Yandex Mail.ru

Angels & Airwaves - View From Below - таба, видео

Печатать
Просмотров: 67
---------------------------------------------------------------------------------------------------------
                                Angels and Airwaves - View from Below
---------------------------------------------------------------------------------------------------------

Verse1
e|-------------6-------------------------------------------------------|    |---|
B|-----------7---7---7-5--54-------7-5-5-4-----------------------------|    |---|
G|---8-8-8-8-----------------4---8---------4-44-66/8-------44-66/8-----| 2x |-8-| -end of 2nd repeat
D|-----------------9-----------9--------------------6--44---------6-44-|    |---|
A|---------------------------------------------------------------------|    |---|
E|---------------------------------------------------------------------|    |---|

Chorus
e|--------------------------------------|  |------------------------------------------|    |----|
B|-------10----10--10------12-12-12-12--|  |------12------12---12-----10-----10---10--|all |-12-| -end of
G|-----9-----9----------11-11-11-11-11--|3x|---11------11-----------9------9----------| of |----|   2nd 
D|---7-----7-----7----9----9--9--9--9---|  |-9-------9-------9----7------7------7-----|this|----|  repeat
A|--------------------------------------|  |------------------------------------------| 2x |----|
E|--------------------------------------|  |------------------------------------------|    |----|


Verse2
e|-------------6------------------------------------------|
B|-----------7---7---7-5-5-4-------7-5-5-4----------------|
G|---8-8-8-8-----------------4---8---------4-4-6/8--------|
D|-----------------9-----------9------------------6--44---|
A|--------------------------------------------------------|
E|--------------------------------------------------------|

Chorus

Bridge Guitar1
e|--------------------------------------------------------------------------------------------------|
B|--------------------------------------------------------------------------------------------------|
G|------8----8----8----8---8----4---4---6---4---4------8----8----8----8----8----6---6--6---4---4----| 2x
D|---11---11---11---11---11---7---7---9---7---7-----11---11---11---11---11----9---9------7---7---7--|
A|--------------------------------------------------------------------------------------------------|
E|--------------------------------------------------------------------------------------------------|

Bridge Guitar2
e|---------------------------------------------------------------------------|
B|---------------------------------------------------------------------------|
G|---11-11-11-9-9-9-9-9-6-6-6-8-8-8-8-8--11-11-11-9-9-9-9-9-6-6-6-4-4-4-4-4--|
D|---------------------------------------------------------------------------|
A|---------------------------------------------------------------------------|
E|---------------------------------------------------------------------------|
                                                                                   all 2x
e|---------------------------------------------------------------------------|
B|---------------------------------------------------------------------------|
G|---11-11-11-9-9-9-9-9-6-6-6-8-8-8-8-8--9-9-9-9-9-9-9-9-6-6-6-4-4-6-4-------|
D|---------------------------------------------------------------------------|
A|---------------------------------------------------------------------------|
E|---------------------------------------------------------------------------|

Chorus again

That's all!!
Добавлено: 23.03.2016
Другие материалы по этой песне:
  • Аккорды и текст

Страница создана 23.03.2016
http://primanota.ru/angels-and-airwaves/view-from-below-chords.htm
Привет, Гость.
Предлагаем пройти революционный курс по гитаре.
Подарок от PrimaNota.Ru, забирай!