PrimaNota.ru - самый крупный в мире бесплатный архив песенных текстов, аккордов, табулатур и нот


Эндрю Йорк - Avenue Of The Giants - таба, видео

Регистрация Запомнить меня
Войти через:  Facebook Google Twitter Vk Yandex Mail.ru

Эндрю Йорк - Avenue Of The Giants - таба, видео

Печатать
Просмотров: 167
                             AVENUE OF THE GIANTS
                           As recorded by Andrew York



    H=85
    $
   2/2
    Gtr I
    Q.   E +Q   Q    +W                W
||--0----1-(1)-----|-----------------|--------------|
||o-1-----------3--|-(3)-------------|--------------|
||-------2-(2)--0--|-(0)-------------|--------------|
||--3----0-(0)-----|-----------------|--------------|
||o-------------2--|-(2)-------------|--------------|
||-----------------|-------3-3-3---3-|-3-3---3-3----|
                      Q.   E E E E E   E E E E H


  Q.   E +Q   Q    +Q   Q  +E  E +Q
|-0----1-(1)-----|---------------------|
|-1-----------3--|-(3)--0--(0)---------|
|------2-(2)--0--|-(0)---------0-(0)---|
|-3----0-(0)-----|------0--(0)---------|
|-------------2--|-(2)---------2-(2)---|
|----------------|------3--(3)-0-(0)---|


  Q.   E +Q   Q    +W                W
|----------------|-----------------|--------------|
|------1-(1)--0--|-(0)-------------|--------------|
|-2--------------|-----------------|--------------|
|------2-(2)--0--|-(0)-------------|--------------|
|-3----0-(0)-----|-----------------|--------------|
|-1-----------3--|-(3)---3-3-3---3-|-3-3---3-3----|
  Q.   E +Q   Q    +Q.   E E E E E   E E E E H


  Q.   E +Q   Q    +Q   Q  +E  E +Q
|-0----1-(1)--3--|-(3)--0--(0)--------|
|-1--------------|-------------1-(1)--|
|------2-(2)--4--|-(4)--0--(0)--------|
|-3----0-(0)--5--|-(5)---------2-(2)--|
|----------------|------3--(3)-0-(0)--|
|----------------|--------------------|


  Q.   E +Q   Q    +W
|-5----1-(1)-----|-----------------|
|-------------3--|-(3)-------------|
|-5----2-(2)--0--|-(0)-------------|
|-3----0-(0)-----|-----------------|
|-------------2--|-(2)-------------|
|----------------|-------3-3-3---3-|
                    Q.   E E E E E


  W              Q.   E +Q   Q    +W
|--------------|----------------|-----------------|
|--------------|-1----0-(0)--1--|-(1)-------------|
|--------------|----------------|-----------------|
|--------------|-3----3-(3)--2--|-(2)-------------|
|--------------|-0-----------0--|-(0)---0-0-0---0-|
|-3-3---3-3----|------3-(3)-----|-----------------|
  E E E E H      Q.   E +Q   Q    +Q.   E E E E E


        To Coda
  W              Q.   E +Q   Q
|--------------|------0-(0)-----|
|--------------|-1----1-(1)--3--|
|--------------|-0----0-(0)--0--|
|--------------|----------------|
|-0------------|----------------|
|---0---1-3----|-0----1-(1)--3--|
  E E E E H      Q.   E +Q   Q


  +W                W              Q.   E +Q   Q
|-----------------|--------------|----------------|
|-(3)-------------|--------------|-3----0-(0)--1--|
|-(0)-------------|--------------|-0----0-(0)--0--|
|-----------------|---------0----|----------------|
|-----------------|---2---3------|----------------|
|-(3)---3-3-3---3-|-3------------|-0-----------1--|
  +Q.   E E E E E   E E E E H      H.          Q


  +W                W              Q.   E +Q   Q    +W
|-----------------|--------------|----------------|---------||
|-(1)-------------|--------------|-1----0-(0)--1--|-(1)----o||
|-(0)-------------|--------------|-0----0-(0)--0--|-(0)-----||
|-----------------|--------------|-3----0-(0)--2--|-(2)-----||
|-----------------|---0---2-3----|-------------3--|-(3)----o||
|-(1)---1-1-1---1-|-1------------|-3----3-(3)-----|---------||
  +Q.   E E E E E   E E E E H


  Q.   E +Q   Q    +W
|----------------|----------------|
|-------------0--|-(0)------------|
|-0----2-(2)-----|----------------|
|-------------0--|-(0)------------|
|-3----3-(3)-----|----------------|
|-0----1-(1)--3--|-(3)---3-3--3---|
  Q.   E +Q   Q    +Q.   E Q  E E


  Q.   E +Q   Q    +W               Q.   E +Q   Q
|----------------|----------------|------0-(0)-----|
|-0----1-(1)--3--|-(3)------------|-3-----------1--|
|----------------|----------------|------0-(0)-----|
|-0----2-(2)--3--|-(3)------------|-3-----------3--|
|------0-(0)--1--|--1----1-1--1---|-1----3-(3)--0--|
|-3--------------|----------------|----------------|
  Q.   E +Q   Q     Q.   E Q  E E   Q.   E +Q   Q


  +W               Q.   E +Q   Q    +W
|----------------|----------------|----------------||
|-(1)------------|-1----3-(3)--0--|-(0)------------||
|----------------|------2-(2)--0--|-(0)------------||
|-(3)------------|-3----0-(0)--0--|-(0)------------||
|--0----0-0--0---|-0--------------|-----2---0------||
|----------------|------2-(2)--3--|-(3)-------3----||
   Q.   E Q  E E   Q.   E +Q   Q    +E  E E E H


 3/2
  Q.   E Q  H     Q    Q.   E Q  H     Q
|--------------------|------0--------------|
|------3----0--------|-0---------1---------|
|-2---------------0--|-----------------2---|
|-0---------0--------|-2---------2---------|
|--------------------|--------------0------|
|-2------------3-----|-4-------------------|
  H      Q  Q  H       H      Q  Q  H


                                                 D.S. al Coda
 2/2
  Q.   E +Q   Q    +Q   Q  +E  E +Q     Q.   E +Q   Q    +W
|------3-(3)--1--|-(1)--0--(0)--------|----------------|---------|
|-3--------------|-------------1-(1)--|-1----0-(0)--1--|-(1)-----|
|-0-----------2--|-(2)--0--(0)--------|------0-(0)--0--|-(0)-----|
|-------------0--|-(0)---------2-(2)--|-3----0-(0)--2--|-(2)-----|
|-2--------------|------3--(3)-0-(0)--|-------------3--|-(3)-----|
|----------------|--------------------|-3----3-(3)-----|---------|
  H.          Q    +Q   Q  +E  E +Q     Q.   E +Q   Q    +W


  &
  Q.   E +Q   Q    +W                W              Q.   E +Q   Q
|----------------|-----------------|--------------|----------------|
|-1----0-(0)--1--|-(1)-------------|--------------|-1----0-(0)--1--|
|------0-(0)--0--|-(0)-------------|--------------|------0-(0)--0--|
|-3----0-(0)--2--|-(2)-------------|--------------|-3----0-(0)--2--|
|-------------3--|-(3)---3-3-3---3-|-3-2---0------|-------------3--|
|-3----3-(3)-----|-----------------|---------3----|-3----3-(3)-----|
  Q.   E +Q   Q    +Q.   E E E E E   E E E E H      Q.   E +Q   Q


  +W                W              Q.   E +Q   Q    +W
|-----------------|--------------|----------------|--------*|
|-(1)-------------|--------------|-1----0-(0)--1--|-(1)----*|
|-(0)-------------|--------------|------0-(0)--0--|-(0)----*|
|-(2)-------------|--------------|-3----0-(0)--2--|-(2)----*|
|-(3)---3-3-3---3-|-3-2---0------|-------------3--|-(3)----*|
|-----------------|---------3----|-3----3-(3)-----|--------*|
  +Q.   E E E E E   E E E E H      Q.   E +Q   Q    +W



Добавлено: 03.05.2012
Другие материалы по этой песне:

Страница создана 12.04.2012
http://primanota.ru/andrew-york/avenue-of-the-giants-chords.htm
Привет, Гость.
Предлагаем пройти революционный курс по гитаре.
Подарок от PrimaNota.Ru, забирай!