PrimaNota.ru - самый крупный в мире бесплатный архив песенных текстов, аккордов, табулатур и нот


Anberlin - Stationary Stationery - текст песни, таба, бас-таба, видео

Регистрация Запомнить меня
Войти через:  Facebook Google Twitter Vk Yandex Mail.ru

Anberlin - Stationary Stationery - текст песни, таба, бас-таба, видео

Печатать
Просмотров: 213
Transcribed by falloutboy682

 Music by Anberlin

 

Gtr I (D A D G B E) - 'Untitled'
Gtr II (D A D G B E) - 'Untitled'
Gtr III (E A D G B E) - 'Untitled'


   Intro
    Q=170
    C#5                                F#5
   4/4
    Gtr I
    E E q  E E q     E  E  q   E  E  E E
||----------------|----------------------|
||o---------------|----------------------|
||--6-6-6--8-8-8--|-10-10-10--13-13-13-6-|
||----------------|----------------------|
||o-4-4-4--6-6-6--|--8--8--8--11-11-11-4-|
||----------------|----------------------|
|
|   Gtr II
|   E E q  E E q     E  E  q   E  E  E E
||----------------|----------------------|
||o---------------|----------------------|
||--6-6-6--6-6-6--|--6--6--6---6--6--6---|
||--6-6-6--6-6-6--|--6--6--6---6--6--6-4-|
||o-4-4-4--4-4-4--|--4--4--4---4--4--4-4-|
||----------------|--------------------4-|


                      C#maj7sus4/F#
  +E  E E E E E E E   E E E E E E E E
|-------------------|--------------------||
|-------------------|-------------------o||
|-(6)-6-6-6-6-6-6-6-|-8-8-8-8-8-8-8-8----||
|-------------------|--------------------||
|-(4)-4-4-4-4-4-4-4-|-6-6-6-6-6-6-6-6---o||
|-------------------|--------------------||
|
| +E  E E E E E E E   E E E E E E E E
|-------------------|--------------------||
|-------------------|-------------------o||
|-------------------|-5-5-5-5-5-5-5-5----||
|-(4)-4-4-4-4-4-4-4-|-4-4-4-4-4-4-4-4----||
|-(4)-4-4-4-4-4-4-4-|-4-4-4-4-4-4-4-4---o||
|-(4)-4-4-4-4-4-4-4-|-4-4-4-4-4-4-4-4----||


 Verse
  N.C.
    PM|   PM|   PM----|   PM    PM    PM|   PM    PM    PM|   PM
  E e e E e e E e   e e E e E E e E   e e E e E E e E   e e E e E E E E
|-----------------|-----------------|-----------------|-----------------|
|-----------------|-----------------|-----------------|-----------------|
|-6-----5-----6---|-----6---6-6---6-|-----6---6-6---6-|-----6---6-6-6-6-|
|-4-4-4-6-6-6-8-8-|-8-8-8-8-8-8-8-8-|-4-4-4-4-4-4-4-4-|-4-4-4-4-4-4-4-4-|
|-----------------|-----------------|-----------------|-----------------|
|-----------------|-----------------|-----------------|-----------------|


      PM    PM  PM----|   PM    PM    PM|   PM    PM    PM|   PM
  E E e E E e E e   e e E e E E e E   e e E e E E e E   e e E e E E E E
|-----------------|-----------------|-----------------|-----------------|
|-----------------|-----------------|-----------------|-----------------|
|-6p5---8p5---6---|-----6---5-6---6-|-----6---5-6---6-|-----6---6-6-6-6-|
|-----6-----6-8-8-|-8-8-8-8-8-8-8-8-|-4-4-4-4-4-4-4-4-|-4-4-4-4-4-4-4-4-|
|-----------------|-----------------|-----------------|-----------------|
|-----------------|-----------------|-----------------|-----------------|
|
| Gtr II
|               PM----|   PM    PM
| H       Q   E e   e e E e E E e E   e e E e E E e E   e e E e E E E E
|-----------------|-----------------|-----------------|-----------------|
|-----------------|-----------------|-----------------|-----------------|
|-------------6---|-----6---5-6---6-|-----6---5-6---6-|-----6---6-6-6-6-|
|-------------6-6-|-6-6-6-6-6-6-6-6-|-6-6-6-6-6-6-6-6-|-6-6-6-6-6-6-6-6-|
|-----------------|-----------------|-----------------|-----------------|
|-----------------|-----------------|-----------------|-----------------|


      PM    PM  PM----|   PM    PM    PM|   PM    PM    PM|   PM
  E E e E E e E e   e e E e E E e E   e e E e E E e E   e e E e E E E E
|-----------------|-----------------|-----------------|-----------------|
|-----------------|-----------------|-----------------|-----------------|
|-6p5---8p5---6---|-----6---5-6---6-|-----6---5-6---6-|-----6---6-6-6-6-|
|-----6-----6-8-8-|-8-8-8-8-8-8-8-8-|-4-4-4-4-4-4-4-4-|-4-4-4-4-4-4-4-4-|
|-----------------|-----------------|-----------------|-----------------|
|-----------------|-----------------|-----------------|-----------------|
|
|     PM    PM  PM----|   PM    PM
| E E e E E e E e   e e E e E E e E   e e E e E E e E   e e E e E E E E
|-----------------|-----------------|-----------------|-----------------|
|-----------------|-----------------|-----------------|-----------------|
|-6p5---8p5---6---|-----6---5-6---6-|-----6---5-6---6-|-----6---6-6-6-6-|
|-----6-----6-6-6-|-6-6-6-6-6-6-6-6-|-6-6-6-6-6-6-6-6-|-6-6-6-6-6-6-6-6-|
|-----------------|-----------------|-----------------|-----------------|
|-----------------|-----------------|-----------------|-----------------|


      PM    PM  PM----|   PM    PM    PM|   PM    PM    PM|   PM
  E E e E E e E e   e e E e E E e E   e e E e E E e E   e e E e E E E E
|-----------------|-----------------|-----------------|-----------------|
|-----------------|-----------------|-----------------|-----------------|
|-6p5---8p5---6---|-----6---5-6---6-|-----6---5-6---6-|-----6---6-6-6-6-|
|-----6-----6-8-8-|-8-8-8-8-8-8-8-8-|-4-4-4-4-4-4-4-4-|-4-4-4-4-4-4-4-4-|
|-----------------|-----------------|-----------------|-----------------|
|-----------------|-----------------|-----------------|-----------------|
|
|     PM    PM  PM----|   PM    PM
| E E e E E e E e   e e E e E E e E   e e E e E E e E   e e E e E E E E
|-----------------|-----------------|-----------------|-----------------|
|-----------------|-----------------|-----------------|-----------------|
|-6p5---8p5---6---|-----6---5-6---6-|-----6---5-6---6-|-----6---6-6-6-6-|
|-----6-----6-6-6-|-6-6-6-6-6-6-6-6-|-6-6-6-6-6-6-6-6-|-6-6-6-6-6-6-6-6-|
|-----------------|-----------------|-----------------|-----------------|
|-----------------|-----------------|-----------------|-----------------|


   Breakdown
    C#5                                F#5
    E E q  E E q     E  E  q   E  E  E E
||----------------|----------------------|
||o---------------|----------------------|
||--6-6-6--8-8-8--|-10-10-10--13-13-13-6-|
||----------------|----------------------|
||o-4-4-4--6-6-6--|--8--8--8--11-11-11-4-|
||----------------|----------------------|
|
|   E E q  E E q     E  E  q   E  E  E E
||----------------|----------------------|
||o---------------|----------------------|
||--6-6-6--6-6-6--|--6--6--6---6--6--6---|
||--6-6-6--6-6-6--|--6--6--6---6--6--6-4-|
||o-4-4-4--4-4-4--|--4--4--4---4--4--4-4-|
||----------------|--------------------4-|


                      C#maj7sus4/F#
  +E  E E E E E E E   E E E E E E E E
|-------------------|-------------------||
|-------------------|------------------o||
|-(6)-6-6-6-6-6-6-6-|-8-8-8-8-8-8-8-8---||
|-------------------|-------------------||
|-(4)-4-4-4-4-4-4-4-|-6-6-6-6-6-6-6-6--o||
|-------------------|-------------------||
|
| +E  E E E E E E E   E E E E E E E E
|-------------------|-------------------||
|-------------------|------------------o||
|-------------------|-5-5-5-5-5-5-5-5---||
|-(4)-4-4-4-4-4-4-4-|-4-4-4-4-4-4-4-4---||
|-(4)-4-4-4-4-4-4-4-|-4-4-4-4-4-4-4-4--o||
|-(4)-4-4-4-4-4-4-4-|-4-4-4-4-4-4-4-4---||


 Pre-Chorus
  A#5                                 F#5
  E E E E E E E E   E E E E E E E E   E E E E E E E E   E E E E E E E E
|-----------------|-----------------|-----------------|-----------------|
|-----------------|-----------------|-----------------|-----------------|
|-6---6---5---5---|-6---6---8---8---|-6---6---5---5---|-6---6---8---8---|
|---6---6---6---6-|---6---6---6---6-|---6---6---6---6-|---6---6---6---6-|
|-----------------|-----------------|-----------------|-----------------|
|-----------------|-----------------|-----------------|-----------------|
|
| q   q   E E E E   q   q   E E E E   q   q   E E E E   q   q   E E E E
|-----------------|-----------------|-----------------|-----------------|
|-----------------|-----------------|-----------------|-----------------|
|-----------------|-----------------|-----------------|-----------------|
|-8---8---8-8-8-8-|-8---8---8-8-8-8-|-4---4---4-4-4-4-|-4---4---4-4-4-4-|
|-8---8---8-8-8-8-|-8---8---8-8-8-8-|-4---4---4-4-4-4-|-4---4---4-4-4-4-|
|-8---8---8-8-8-8-|-8---8---8-8-8-8-|-4---4---4-4-4-4-|-4---4---4-4-4-4-|


  C#5                                 G#5                 F#5     G#5
  E E E E E E E E   E E E E E E E E   E E E E E E E E   W
|-----------------|-----------------|-----------------|-----------------|
|-----------------|-----------------|-----------------|-----------------|
|-6---6---5---5---|-6---6---8---8---|-5---5---6---6---|-----------------|
|---6---6---6---6-|---6---6---6---6-|---6---6---6---6-|-----------------|
|-----------------|-----------------|-----------------|-----------------|
|-----------------|-----------------|-----------------|-----------------|
|
| q   q   E E E E   q   q   E E E E   q   q   E E E E   E E E E E E E E
|-----------------|-----------------|-----------------|-----------------|
|-----------------|-----------------|-----------------|-----------------|
|-6---6---6-6-6-6-|-6---6---6-6-6-6-|-----------------|-----------------|
|-6---6---6-6-6-6-|-6---6---6-6-6-6-|-6---6---6-6-6-6-|-x-4-4-4-4-6-6-6-|
|-4---4---4-4-4-4-|-4---4---4-4-4-4-|-6---6---6-6-6-6-|-x-4-4-4-4-6-6-6-|
|-----------------|-----------------|-6---6---6-6-6-6-|-x-4-4-4-4-6-6-6-|


   Chorus
    $
      C#5              F#5
    E E E E E E q    E E E E E E E E
||-----------------|-----------------|
||o----------------|-----------------|
||--x-6-6-6-6-6-6--|-x-6-6-6-6-6-6-6-|
||-----------------|-----------------|
||o-x-4-4-4-4-4-4--|-x-4-4-4-4-4-4-4-|
||-----------------|-----------------|
|
|   E E E E E E q    E E E E E E E E
||-----------------|-----------------|
||o----------------|-----------------|
||--x-6-6-6-6-6-6--|-----------------|
||--x-6-6-6-6-6-6--|-x-4-4-4-4-4-4-4-|
||o-x-4-4-4-4-4-4--|-x-4-4-4-4-4-4-4-|
||-----------------|-x-4-4-4-4-4-4-4-|


                                To Coda
    A#5                    F#5     G#5
  E  E  E  E  E  E  q    E E E E E E E E
|----------------------|-------------------||
|----------------------|------------------o||
|-x-10-10-10-10-10-10--|-x-6-6-6-6-8-8-8---||
|----------------------|-------------------||
|-x--8--8--8--8--8--8--|-x-4-4-4-4-6-6-6--o||
|----------------------|-------------------||
|
| E  E  E  E  E  E  q    E E E E E E E E
|----------------------|-------------------||
|----------------------|------------------o||
|----------------------|-------------------||
|-x--8--8--8--8--8--8--|-x-4-4-4-4-6-6-6---||
|-x--8--8--8--8--8--8--|-x-4-4-4-4-6-6-6--o||
|-x--8--8--8--8--8--8--|-x-4-4-4-4-6-6-6---||


 Verse
  N.C.
      PM    PM  PM----|   PM    PM    PM|   PM    PM    PM|   PM
  E E e E E e E e   e e E e E E e E   e e E e E E e E   e e E e E E E E
|-----------------|-----------------|-----------------|-----------------|
|-----------------|-----------------|-----------------|-----------------|
|-6p5---8p5---6---|-----6---5-6---6-|-----6---5-6---6-|-----6---6-6-6-6-|
|-----6-----6-8-8-|-8-8-8-8-8-8-8-8-|-4-4-4-4-4-4-4-4-|-4-4-4-4-4-4-4-4-|
|-----------------|-----------------|-----------------|-----------------|
|-----------------|-----------------|-----------------|-----------------|
|
|               PM----|   PM    PM
| H       Q   E e   e e E e E E e E   e e E e E E e E   e e E e E E E E
|-----------------|-----------------|-----------------|-----------------|
|-----------------|-----------------|-----------------|-----------------|
|-------------6---|-----6---5-6---6-|-----6---5-6---6-|-----6---6-6-6-6-|
|-------------6-6-|-6-6-6-6-6-6-6-6-|-6-6-6-6-6-6-6-6-|-6-6-6-6-6-6-6-6-|
|-----------------|-----------------|-----------------|-----------------|
|-----------------|-----------------|-----------------|-----------------|


        PM    PM  PM----|   PM    PM    PM|   PM    PM    PM|   PM
    E E e E E e E e   e e E e E E e E   e e E e E E e E   e e E e E E E E
||------------------|-----------------|-----------------|-------------------||
||o-----------------|-----------------|-----------------|------------------o||
||--6p5---8p5---6---|-----6---5-6---6-|-----6---5-6---6-|-----6---6-6-6-6---||
||------6-----6-8-8-|-8-8-8-8-8-8-8-8-|-4-4-4-4-4-4-4-4-|-4-4-4-4-4-4-4-4---||
||o-----------------|-----------------|-----------------|------------------o||
||------------------|-----------------|-----------------|-------------------||
|
|       PM    PM  PM----|   PM    PM
|   E E e E E e E e   e e E e E E e E   e e E e E E e E   e e E e E E E E
||------------------|-----------------|-----------------|-------------------||
||o-----------------|-----------------|-----------------|------------------o||
||--6p5---8p5---6---|-----6---5-6---6-|-----6---5-6---6-|-----6---6-6-6-6---||
||------6-----6-6-6-|-6-6-6-6-6-6-6-6-|-6-6-6-6-6-6-6-6-|-6-6-6-6-6-6-6-6---||
||o-----------------|-----------------|-----------------|------------------o||
||------------------|-----------------|-----------------|-------------------||


                                                            D.S. al Coda
      PM    PM  PM----|   PM    PM    PM|   PM    PM
  E E e E E e E e   e e E e E E e E   e e E e E E e E   E E E  E  E E E E
|-----------------|-----------------|-----------------|-------------------||
|-----------------|-----------------|-----------------|-------------------||
|-6p5---8p5---6---|-----6---5-6---6-|-----6---5-6---6-|-x-8-8-10-10-6-6-6-||
|-----6-----6-8-8-|-8-8-8-8-8-8-8-8-|-4-4-4-4-4-4-4-4-|-------------------||
|-----------------|-----------------|-----------------|-x-6-6--8--8-4-4-4-||
|-----------------|-----------------|-----------------|-------------------||
|
|     PM    PM  PM----|   PM    PM
| E E e E E e E e   e e E e E E e E   e e E e E E e E   E E E  E  E E E E
|-----------------|-----------------|-----------------|-------------------||
|-----------------|-----------------|-----------------|-------------------||
|-6p5---8p5---6---|-----6---5-6---6-|-----6---5-6---6-|-x-8-8-10-10-6-6-6-||
|-----6-----6-6-6-|-6-6-6-6-6-6-6-6-|-6-6-6-6-6-6-6-6-|-------------------||
|-----------------|-----------------|-----------------|-x-6-6--8--8-4-4-4-||
|-----------------|-----------------|-----------------|-------------------||


   Chorus Extended
    &
    C#5                   F#5
     E E  E E  E E  E E    E E  E E  E E  E E
||----------------------|---------------------|
||o---------------------|---------------------|
||---6-6--6-6--6-6--6-6-|--6-6--6-6--6-6--6-6-|
||----------------------|---------------------|
||o--4-4--4-4--4-4--4-4-|--4-4--4-4--4-4--4-4-|
||----------------------|---------------------|
|
|    E E  E E  E E  E E    E E  E E  E E  E E
||----------------------|---------------------|
||o---------------------|---------------------|
||---6-6--6-6--6-6--6-6-|---------------------|
||---6-6--6-6--6-6--6-6-|--4-4--4-4--4-4--4-4-|
||o--4-4--4-4--4-4--4-4-|--4-4--4-4--4-4--4-4-|
||----------------------|--4-4--4-4--4-4--4-4-|
|
|   Gtr III
|    E E  E E  E E  E E    E E  E E  E E  E E
||--/9---/9---/9---/9---|-/9---/9---/9---/9---|
||o----9----9----9----9-|----9----9----9----9-|
||----------------------|---------------------|
||----------------------|---------------------|
||o---------------------|---------------------|
||----------------------|---------------------|


  A#5                       F#5             G#5
   E  E  E  E  E  E  E  E     E E   E E   E E   E E
|-------------------------|---------------------------||
|-------------------------|--------------------------o||
|-10-10-10-10-10-10-10-10-|---6-6---6-6---6-8---8-8---||
|-------------------------|---------------------------||
|--8--8--8--8--8--8--8--8-|---4-4---4-4---4-6---6-6--o||
|-------------------------|---------------------------||
|
|  E  E  E  E  E  E  E  E     E E   E E   E E   E E
|-------------------------|---------------------------||
|-------------------------|--------------------------o||
|-------------------------|---------------------------||
|--8--8--8--8--8--8--8--8-|---4-4---4-4---4-6---6-6---||
|--8--8--8--8--8--8--8--8-|---4-4---4-4---4-6---6-6--o||
|--8--8--8--8--8--8--8--8-|---4-4---4-4---4-6---6-6---||
|
|  E  E  E  E  E  E  E  E     E E   E E   E E   E E
|-/9----/9----/9----/9----|-/11---/11---/11---/11-----||
|-----9-----9-----9-----9-|-----9-----9-----9-----9--o||
|-------------------------|---------------------------||
|-------------------------|---------------------------||
|-------------------------|--------------------------o||
|-------------------------|---------------------------||


 Interlude
  A#5              D#5                   F#5
  E  E E E E E  E  E    E  E E E E E  E  E
|--------------------|---------------------|
|--------------------|---------------------|
|----5-6-5-6-5-------|-----5-6-5---5--6--5-|
|-8-------------8--6-|--6--------8---------|
|--------------------|---------------------|
|--------------------|---------------------|
|
| H.           +E  E   +H.           +E  E
|--------------------|---------------------|
|--------------------|---------------------|
|--------------------|---------------------|
|-8------------(8)-1-|-(1)-----------(1)-4-|
|-8------------(8)-1-|-(1)-----------(1)-4-|
|-8------------(8)-1-|-(1)-----------(1)-4-|


                                        A#5
   E  E E E E E E E    E  E E E E E  E  E
|-----------4-------|-----------4---------|
|-------------------|---------------------|
|--6--5-6-5---5-6-5-|-----5-6-5---5--6----|
|-------------------|--6----------------8-|
|-------------------|---------------------|
|-------------------|---------------------|
|
| +W                  +H.           +E  E
|-------------------|---------------------|
|-------------------|---------------------|
|-------------------|---------------------|
|-(4)---------------|-(4)-----------(4)-8-|
|-(4)---------------|-(4)-----------(4)-8-|
|-(4)---------------|-(4)-----------(4)-8-|


                    D#5                   F#5
   E  E E E E E  E  E    E  E E E E E  E  E
|-----------4---------|-----------4---------|
|---------------------|---------------------|
|-----5-6-5---5--6--5-|-----5-6-5---5--6--5-|
|--8------------------|--6------------------|
|---------------------|---------------------|
|---------------------|---------------------|
|
| +H.           +E  E   +H.           +E  E
|---------------------|---------------------|
|---------------------|---------------------|
|---------------------|---------------------|
|-(8)-----------(8)-1-|-(1)-----------(1)-4-|
|-(8)-----------(8)-1-|-(1)-----------(1)-4-|
|-(8)-----------(8)-1-|-(1)-----------(1)-4-|


                                        C#5
   E  E E E E E E E    E  E E E E E  E  E
|-----------4-------|-----------4---------||
|-------------------|---------------------||
|--6--5-6-5---5-6-5-|-----5-6-5---5--6--6-||
|-------------------|--6------------------||
|-------------------|-------------------4-||
|-------------------|---------------------||
|
| +W                  +H.           +E  E
|-------------------|---------------------||
|-------------------|---------------------||
|-------------------|-------------------6-||
|-(4)---------------|-(4)-----------(4)-6-||
|-(4)---------------|-(4)-----------(4)-4-||
|-(4)---------------|-(4)-----------(4)---||


 Breakdown
                      D#5
  +E  E E E E E E E   E E E E E E E E
|-------------------|-----------------|
|-------------------|-----------------|
|-(6)-6-6-6-6-6-6-6-|-8-8-8-8-8-8-8-8-|
|-------------------|-----------------|
|-(4)-4-4-4-4-4-4-4-|-6-6-6-6-6-6-6-6-|
|-------------------|-----------------|
|
| +E  E E E E E E E   E E E E E E E E
|-------------------|-----------------|
|-------------------|-----------------|
|-(6)-6-6-6-6-6-6-6-|-----------------|
|-(6)-6-6-6-6-6-6-6-|-1-1-1-1-1-1-1-1-|
|-(4)-4-4-4-4-4-4-4-|-1-1-1-1-1-1-1-1-|
|-------------------|-1-1-1-1-1-1-1-1-|


  F#5
  E E E E E E E E    E  E  E  E  E  E  E  E
|-----------------|-------------------------|
|-----------------|-------------------------|
|-6-6-6-6-8-8-8-8-|-10-10-10-10-13-13-13-13-|
|-----------------|-------------------------|
|-4-4-4-4-6-6-6-6-|--8--8--8--8-11-11-11-11-|
|-----------------|-------------------------|
|
| E E E E E E E E    E  E  E  E  E  E  E  E
|-----------------|-------------------------|
|-----------------|-------------------------|
|-----------------|-------------------------|
|-4-4-4-4-4-4-4-4-|--4--4--4--4--4--4--4--4-|
|-4-4-4-4-4-4-4-4-|--4--4--4--4--4--4--4--4-|
|-4-4-4-4-4-4-4-4-|--4--4--4--4--4--4--4--4-|


  C#5               D#5               F#5                         G#5
  E E E E E E E E   E E E E E E E E   E E E E E E E E   E E E E E E E E
|-----------------|-----------------|-----------------|-----------------||
|-----------------|-----------------|-----------------|-----------------||
|-6-6-6-6-6-6-6-6-|-8-8-8-8-8-8-8-8-|-6---6---6-------|-6---6---6-8-8-8-||
|-----------------|-----------------|---4---4---4---4-|---4---4---------||
|-4-4-4-4-4-4-4-4-|-6-6-6-6-6-6-6-6-|-----------------|-----------------||
|-----------------|-----------------|-----------------|-----------------||
|
| E E E E E E E E   E E E E E E E E   E E E E E E E E   E E E E E E E E
|-----------------|-----------------|-----------------|-----------------||
|-----------------|-----------------|-----------------|-----------------||
|-6-6-6-6-6-6-6-6-|-----------------|-----------------|-----------------||
|-6-6-6-6-6-6-6-6-|-1-1-1-1-1-1-1-1-|-4-4-4-4-4-4-x-4-|-4-4-4-4-4-6-6-6-||
|-4-4-4-4-4-4-4-4-|-1-1-1-1-1-1-1-1-|-4-4-4-4-4-4-x-4-|-4-4-4-4-4-6-6-6-||
|-----------------|-1-1-1-1-1-1-1-1-|-4-4-4-4-4-4-x-4-|-4-4-4-4-4-6-6-6-||


   Chorus
      C#5              F#5
    E E E E E E q    E E E E E E E E
||-----------------|-----------------|
||o----------------|-----------------|
||--x-6-6-6-6-6-6--|-x-6-6-6-6-6-6-6-|
||-----------------|-----------------|
||o-x-4-4-4-4-4-4--|-x-4-4-4-4-4-4-4-|
||-----------------|-----------------|
|
|   E E E E E E q    E E E E E E E E
||-----------------|-----------------|
||o----------------|-----------------|
||--x-6-6-6-6-6-6--|-----------------|
||--x-6-6-6-6-6-6--|-x-4-4-4-4-4-4-4-|
||o-x-4-4-4-4-4-4--|-x-4-4-4-4-4-4-4-|
||-----------------|-x-4-4-4-4-4-4-4-|


    A#5                    F#5     G#5
  E  E  E  E  E  E  q    E E E E E E E E
|----------------------|-------------------||
|----------------------|------------------o||
|-x-10-10-10-10-10-10--|-x-6-6-6-6-8-8-8---||
|----------------------|-------------------||
|-x--8--8--8--8--8--8--|-x-4-4-4-4-6-6-6--o||
|----------------------|-------------------||
|
| E  E  E  E  E  E  q    E E E E E E E E
|----------------------|-------------------||
|----------------------|------------------o||
|----------------------|-------------------||
|-x--8--8--8--8--8--8--|-x-4-4-4-4-6-6-6---||
|-x--8--8--8--8--8--8--|-x-4-4-4-4-6-6-6--o||
|-x--8--8--8--8--8--8--|-x-4-4-4-4-6-6-6---||


    C#5                   F#5
     E E  E E  E E  E E    E E  E E  E E  E E
||----------------------|---------------------|
||o---------------------|---------------------|
||---6-6--6-6--6-6--6-6-|--6-6--6-6--6-6--6-6-|
||----------------------|---------------------|
||o--4-4--4-4--4-4--4-4-|--4-4--4-4--4-4--4-4-|
||----------------------|---------------------|
|
|    E E  E E  E E  E E    E E  E E  E E  E E
||----------------------|---------------------|
||o---------------------|---------------------|
||---6-6--6-6--6-6--6-6-|---------------------|
||---6-6--6-6--6-6--6-6-|--4-4--4-4--4-4--4-4-|
||o--4-4--4-4--4-4--4-4-|--4-4--4-4--4-4--4-4-|
||----------------------|--4-4--4-4--4-4--4-4-|
|
|   Gtr III
|    E E  E E  E E  E E    E E  E E  E E  E E
||--/9---/9---/9---/9---|-/9---/9---/9---/9---|
||o----9----9----9----9-|----9----9----9----9-|
||----------------------|---------------------|
||----------------------|---------------------|
||o---------------------|---------------------|
||----------------------|---------------------|


  A#5                       F#5             G#5
   E  E  E  E  E  E  E  E     E E   E E   E E   E E
|-------------------------|---------------------------||
|-------------------------|--------------------------o||
|-10-10-10-10-10-10-10-10-|---6-6---6-6---6-8---8-8---||
|-------------------------|---------------------------||
|--8--8--8--8--8--8--8--8-|---4-4---4-4---4-6---6-6--o||
|-------------------------|---------------------------||
|
|  E  E  E  E  E  E  E  E     E E   E E   E E   E E
|-------------------------|---------------------------||
|-------------------------|--------------------------o||
|-------------------------|---------------------------||
|--8--8--8--8--8--8--8--8-|---4-4---4-4---4-6---6-6---||
|--8--8--8--8--8--8--8--8-|---4-4---4-4---4-6---6-6--o||
|--8--8--8--8--8--8--8--8-|---4-4---4-4---4-6---6-6---||
|
|  E  E  E  E  E  E  E  E     E E   E E   E E   E E
|-/9----/9----/9----/9----|-/11---/11---/11---/11-----||
|-----9-----9-----9-----9-|-----9-----9-----9-----9--o||
|-------------------------|---------------------------||
|-------------------------|---------------------------||
|-------------------------|--------------------------o||
|-------------------------|---------------------------||


  G#5
  >                 <
  W                 E  E E E E E E E
|----------------|-------------------||
|----------------|-------------------||
|-8--------------|--8--8-8-8-8-8-8-8-||
|----------------|-------------------||
|-6--------------|--6--6-6-6-6-6-6-6-||
|----------------|-------------------||
|
|    PM----------------------------|
| Q  E E E E E E    E  E E E E E E E
|----------------|-------------------||
|----------------|-------------------||
|----------------|-------------------||
|-6--------------|-------------------||
|-6--6-6-6-6-6-6-|--6--6-6-6-6-6-6-6-||
|-6--6-6-6-6-6-6-|--6--6-6-6-6-6-6-6-||
|
|                   >
| W                +W
|-8--------------|-(8)---------------||
|----------------|-------------------||
|----------------|-------------------||
|----------------|-------------------||
|----------------|-------------------||
|----------------|-------------------||


 Outro
  C#5                                F#5                     C#maj7sus4/F#
  E E q  E E q     E  E  q   E  E  E E   +E  E E E E E E E   E E E E E E E E
|---------------|----------------------|-------------------|-----------------|
|---------------|----------------------|-------------------|-----------------|
|-6-6-6--8-8-8--|-10-10-10--13-13-13-6-|-(6)-6-6-6-6-6-6-6-|-8-8-8-8-8-8-8-8-|
|---------------|----------------------|-------------------|-----------------|
|-4-4-4--6-6-6--|--8--8--8--11-11-11-4-|-(4)-4-4-4-4-4-4-4-|-6-6-6-6-6-6-6-6-|
|---------------|----------------------|-------------------|-----------------|
|
| E E q  E E q     E  E  q   E  E  E E   +E  E E E E E E E   E E E E E E E E
|---------------|----------------------|-------------------|-----------------|
|---------------|----------------------|-------------------|-----------------|
|-6-6-6--6-6-6--|--6--6--6---6--6--6---|-------------------|-5-5-5-5-5-5-5-5-|
|-6-6-6--6-6-6--|--6--6--6---6--6--6-4-|-(4)-4-4-4-4-4-4-4-|-4-4-4-4-4-4-4-4-|
|-4-4-4--4-4-4--|--4--4--4---4--4--4-4-|-(4)-4-4-4-4-4-4-4-|-4-4-4-4-4-4-4-4-|
|---------------|--------------------4-|-(4)-4-4-4-4-4-4-4-|-4-4-4-4-4-4-4-4-|


  C#5                                F#5
                                                       >
  E E q  E E q     E  E  q   E  E  E E   +W           +W
|---------------|----------------------|------------|--------*|
|---------------|----------------------|------------|--------*|
|-6-6-6--8-8-8--|-10-10-10--13-13-13-6-|-(6)--------|-(6)----*|
|---------------|----------------------|------------|--------*|
|-4-4-4--6-6-6--|--8--8--8--11-11-11-4-|-(4)--------|-(4)----*|
|---------------|----------------------|------------|--------*|
|
|                                                      >
| E E q  E E q     E  E  q   E  E  E E   +W           +W
|---------------|----------------------|------------|--------*|
|---------------|----------------------|------------|--------*|
|-6-6-6--6-6-6--|--6--6--6---6--6--6---|------------|--------*|
|-6-6-6--6-6-6--|--6--6--6---6--6--6-4-|-(4)--------|-(4)----*|
|-4-4-4--4-4-4--|--4--4--4---4--4--4-4-|-(4)--------|-(4)----*|
|---------------|--------------------4-|-(4)--------|-(4)----*|




--------------------------------------------------------------------------------


Duration Legend
---------------
W - whole; H - half; Q - quarter; E - 8th; S - 16th; T - 32nd; X - 64th; a - acciaccatura
+ - note tied to previous; . - note dotted; .. - note double dotted
Uncapitalized letters represent notes that are staccato (1/2 duration)
Irregular groupings are notated above the duration line
Duration letters will always appear directly above the note/fret number it represents the
duration for.  Duration letters with no fret number below them represent rests.  Multi-
bar rests are notated in the form Wxn, where n is the number of bars to rest for.  Low
melody durations appear below the staff

Tablature Legend
----------------
 h   - hammer-on
 p   - pull-off
 b   - bend
 pb  - pre-bend
 r   - bend release (if no number after the r, then release immediately)
 /\  - slide into or out of (from/to "nowhere")
 s   - legato slide
 S   - shift slide
 - natural harmonic
[n]  - artificial harmonic
n(n) - tapped harmonic
 ~   - vibrato
 tr  - trill
 T   - tap
 TP  - trem. picking
 PM  - palm muting
\n/  - tremolo bar dip; n = amount to dip
 \n  - tremolo bar down
 n/  - tremolo bar up
/n\  - tremolo bar inverted dip
 =   - hold bend; also acts as connecting device for hammers/pulls
 <> - volume swell (louder/softer)
 x   - on rhythm slash represents muted slash
 o   - on rhythm slash represents single note slash

Misc Legend
-----------
 |  - bar
||  - double bar
||o - repeat start
o|| - repeat end
*|  - double bar (ending)
 :  - bar (freetime)
 $  - Segno
 &  - Coda
Tempo markers -  = BPM(8/16=s8/s16), where s8 = swing 8ths, s16 = swing 16ths

Добавлено: 07.07.2012
Другие материалы по этой песне:
  • Аккорды и текст

Страница создана 09.05.2012
http://primanota.ru/anberlin/stationary-stationery-chords.htm
Привет, Гость.
Предлагаем пройти революционный курс по гитаре.
Подарок от PrimaNota.Ru, забирай!