PrimaNota.ru - самый крупный в мире бесплатный архив песенных текстов, аккордов, табулатур и нот


Anberlin - To The Wolves - текст песни, таба, видео

Регистрация Запомнить меня
Войти через:  Facebook Google Twitter Vk Yandex Mail.ru

Anberlin - To The Wolves - текст песни, таба, видео

Печатать
Просмотров: 258
Уроки эстрадного вокала в Санкт-Петербурге
Artist: Anberlin
Song: To The Wolves
Tuning Drop D. (DADGBE)

This isn't prefect so if anyone has any comments for it let me know.  Thanks.

Intro:
Guitar 1
-----------------------------------------------------------|
-----------------------------------------------------------|
-9-11-11-11-11--11-11-9-9-9--------------------------------| x8
-x-x--x--x--x---x--x--x-x-x--------------------------------|
-7-9--9--9--9---9--9--7-7-7--------------------------------|
-----------------------------------------------------------|
Guitar 2
-----------------------------------------------------------|
-----------------------------------------------------------|
-----------------------------------------------------------| x2
-4--44--4--44--420--00--0--00--024-------------------------|
-4--44--4--44--420--00--0--00--024-------------------------|
-4--44--4--44--420--00--0--00--024-------------------------|
Verse:
Guitar 1 clean
-----------------------------------------------------------|
-7-----7-----7-----7---------------------------------------|
-6-----6-----6-----6---------------------------------------| x2
-4-----4-----4-----4---------------------------------------|
-4-----0-----4-----0---------------------------------------|
-----------------------------------------------------------|
Guitar 2 comes in with bass
-----------------------------------------------------------------|
-10-10-1010-10-1212-1212-12-1010-1010-10-1212-1212-12------------|
-11-11-1111-11-1111-1111-11-1111-1111-11-1111-1111-11------------|
-x--x--x-x--x--x-x--x-x--x--x-x--x-x--x--x-x--x-x--x-------------|
-9--9--9-9--9--9-9--9-9--9--9-9--9-9--9--9-9--9-9--9-------------|
-----------------------------------------------------------------|

----------------------------------------------------------------|
-7-7--7-7--7--9-9--9-9--9--7-7--7-7--7--9-9--9-9--9-------------|
-7-7--7-7--7--7-7--7-7--7--7-7--7-7--7--7-7--7-7--7-------------|
-x-x--x-x--x--x-x--x-x--x--x-x--x-x--x--x-x--x-x--x-------------|
-5-5--5-5--5--5-5--5-5--5--5-5--5-5--5--5-5--5-5--5-------------|
----------------------------------------------------------------|
Pre Chorus:
Guitar 1
--9---9------5---5------2---2-------------------------7-7-7--|
----7---7--7---5---5--5---2---2--2-5---5------2---2----------|
-------------------------------------4---4--4---4---4--------| x2
-------------------------------------------------------------|
-------------------------------------------------------------|
-------------------------------------------------------------|
Guitar 2
---------------------------------------|
---------------------------------------|
---------------------------------------| x2
---------------------------------------|
---------------------------------------|
-4444444444444444-00000000-22222222----|
Transition to chorus
---------------------|
---------------------|
---------------------|
-0-7-9-7-9-0-2-7-4---|
-0-7-9-7-9-0-2-7-4---|
-0-7-9-7-9-0-2-7-4---|
Chorus:
Guitar 1
-----------------------------------------------------------|
-----------------------------------------------------------|
-9-11-11-11-11--11-11-9-9-9--------------------------------| x8
-x-x--x--x--x---x--x--x-x-x--------------------------------|
-7-9--9--9--9---9--9--7-7-7--------------------------------|
-----------------------------------------------------------|
Guitar 2
-----------------------------------------------------------|
-----------------------------------------------------------|
-----------------------------------------------------------| x2
-4--44--4--44--420--00--0--00--024-------------------------|
-4--44--4--44--420--00--0--00--024-------------------------|
-4--44--4--44--420--00--0--00--024-------------------------|

Verse:
Pre Chorus:
Chorus:

Solo:
Guitar 1
-----9~---------12~-----9~----------------9~---------12~---|
--7~----10~-12~------7~----10~-12~-5~--7~----10~-12~-------|
-----------------------------------------------------------|
-----------------------------------------------------------|
-----------------------------------------------------------|
-----------------------------------------------------------|

---12b14-12b14-12b14-12b14-12b14b12b14b12------------------|
-----------------------------------------------------------|
-----------------------------------------------------------|
-----------------------------------------------------------|
-----------------------------------------------------------|
-----------------------------------------------------------|

-----9~---------12~-----9~----------------9~---------12~-12b14--|
--7~----10~-12~------7~----10~-12~-5~--7~----10~-12~------------|
----------------------------------------------------------------|
----------------------------------------------------------------|
----------------------------------------------------------------|
----------------------------------------------------------------|

Guitar 2
-----------------------------------------------------------|
-----------------------------------------------------------|
-----------------------------------------------------------|
-----------------------------------------------------------|
-----------------------------------------------------------|
-00000000-22229999-44444444-22222222-00000000-22229999-----|

-----------------------------------------------------------|
-----------------------------------------------------------|
-----------------------------------------------------------|
-----------------------------------------------------------|
-----------------------------------------------------------|
-244-244-244-244-2442--------------------------------------|

-----------------------------------------------------------|
-----------------------------------------------------------|
-----------------------------------------------------------|
-----------------------------------------------------------|
-----------------------------------------------------------|
-00000000-22229999-44444444-22222222-00000000-22229999-4---|

Pre Chorus:
Guitar 1 clean
-----------------------------------------------------------|
-7-----7-----7-----7---------------------------------------|
-6-----6-----6-----6---------------------------------------| x2
-4-----4-----4-----4---------------------------------------|
-4-----0-----4-----0---------------------------------------|
-----------------------------------------------------------|
Guitar 2
---------------------|
---------------------|
---------------------|
-0-7-9-7-9-0-2-7-4---|
-0-7-9-7-9-0-2-7-4---|
-0-7-9-7-9-0-2-7-4---|

Chorus:
Guitar 1
-----------------------------------------------------------|
-----------------------------------------------------------|
-9-11-11-11-11--11-11-9-9-9--------------------------------| x8
-x-x--x--x--x---x--x--x-x-x--------------------------------|
-7-9--9--9--9---9--9--7-7-7--------------------------------|
-----------------------------------------------------------|
Guitar 2
-----------------------------------------------------------|
-----------------------------------------------------------|
-----------------------------------------------------------| x2
-4--44--4--44--420--00--0--00--024-------------------------|
-4--44--4--44--420--00--0--00--024-------------------------|
-4--44--4--44--420--00--0--00--024-------------------------|
Добавлено: 01.05.2012
Другие материалы по этой песне:
  • Аккорды и текст

Страница создана 01.05.2012
http://primanota.ru/anberlin/to-the-wolves-chords.htm
Привет, Гость.
Предлагаем пройти революционный курс по гитаре.
Подарок от PrimaNota.Ru, забирай!