PrimaNota.ru - самый крупный в мире бесплатный архив песенных текстов, аккордов, табулатур и нот


Anberlin - Hello Alone - текст песни, таба, видео

Регистрация Запомнить меня
Войти через:  Facebook Google Twitter Vk Yandex Mail.ru

Anberlin - Hello Alone - текст песни, таба, видео

Печатать
Просмотров: 213
This is my favorite song on they're new CD. I am surprised it is not up yet because it 
very easy to figure out. Anyway, this is about 95% correct, but it will get you playing 
song.

anberlin
Hello Alone
Cities

Guitar 1:Drop D
Guitar 2:Drop D

b=bend
fb=full bend
r=return
()=ghost note

Intro
Guitar 1/Rythm Figure A
e|---------------------------|
B|--13-13-13fb15--15-15-15r--|
G|---------------------------|
D|---------------------------|X2
A|---------------------------|
D|---------------------------|

Guitar 2
e|---------------------------------------------------------------|
B|---------------------------------------------------------------|
G|------------------------------------2-2-2--2-2-2--2-2-2--2-2-2-|
D|-------101010-101010-101010-101010--0-0-0--0-0-0--0-0-0--0-0-0-|
A|-------8-8-8--8-8-8--8-8-8--8-8-8---0-0-0--0-0-0--0-0-0--0-0-0-|X2
D|-------8-8-8--8-8-8--8-8-8--8-8-8---0-0-0--0-0-0--0-0-0--0-0-0-|

Verse 1/Guitar 1
e|------------------------------------------|
B|-----------------------------10--(10b)----|
G|--10-10---10--------12-12-----------------|
D|--------8-------10--------12--------------|X4
A|------------------------------------------|
D|------------------------------------------|

Guitar 2(0:17)
e|----------------------------|
B|----------------------------|
G|----------------------------|
D|-------10-------12----------|
A|-(0)s--8--------12----------|X3
D|-(0)s--8--------12----------|
    .    .        .


Pre-Chorus 1/Guitar 1
e|----------------------------------------------------------|
B|---------10---------------------------------10------13fb--|
G|-----10-----------12--10--9h10p9--------10----------------|
D|--8-----------10---------------------8--------------------|
A|----------------------------------------------------------|
D|----------------------------------------------------------|


e|---------------------------------------------------------------------|
B|---------------------------------------------------------------------|
G|--10~~~~~~---12~~~~~~~----------------------------------222-222-2222-|
D|--10~~~~~~---12~~~~~~~---X2-----------------------------000-000-0000-|
A|--8~~~~~~~---10~~~~~~~----------------------------------000-000-0000-|
D|--8~~~~~~~---10~~~~~~~----------------------------------000-000-0000-|

Chorus 1/Guitar 2
e|--------------------|
B|--------------------|
G|--10-------2-----5--|                 Figure out the strumming
D|--10-------0-----3--|X2
A|--8--------0-----3--|
D|--8--------0-----3--|

Chorus 1/Guitar 1

e|--8--------5-----5--|
B|--6--------3-----6--|
G|--------------------|           Again,Figure out the strumming
D|--------------------|X2
A|--------------------|
D|--------------------|

Outro-Chorus 1/Guitar 1 plays Rythm Figure A

Outro-Chorus 1/Guitar 2
e|---------------------------------XXXXX-----------------|
B|---------------------------------XXXXX-----------------|
G|-----------------2-2--22---------XXXXX-------2-2-------|
D|--10-10--1010----0-0--00---1010--XXXXX-1010--0-0-------|
A|--8--8---8-8-----0-0--00---8-8---XXXXX-8-8---0-0-------|
D|--8--8---8-8-----0-0--00---8-8---XXXXX-8-8---0-0-------|


Verse 2/Guitar 1
e|------------------------------------------------------------------------|
B|------------------------------------------------------------------------|
G|---5-0--------------------5-0---2brbrbrbrbrbrbrbr-------9-10-12-9-10----|
D|-2------2(3)-2brbrbrbr--2------------------------X2---10----------------|
A|------------------------------------------------------------------------|
D|------------------------------------------------------------------------|

Verse 2/Guitar 2
e|---------------------------------------------------------------------|
B|---------------------------------------------------------------------|
G|---------------------------------------------------------------------|
D|--10----0-------------------------------------------10-12--1010-0-3--|
A|--8-----0--X4---------------------------------------8--10--8-8--0-3--|
D|--8-----0-------------------------------------------8--10--8-8--0-3--|
    .     .


Both Guitars play Chorus 1 Again
Then

Interlude(2:07)/Guitar 1

e|-1-----(1)-1b---1-------------3---|--1---1---3~---1---1----3~--|
B|--(1)--------------1--------1-----|---1---1--------1---1-------|
G|----(2)---------------2---0-------|----2---2--------2---2------|X4
D|----------------------------------|----------------------------|
A|----------------------------------|----------------------------|
D|----------------------------------|----------------------------|

Guitar 2
e|-----------------------------|     |-----------------------|
B|-----------------------------|     |-----------------------|
G|-10~~~~--12~~~--2------------|     |-----------------------|
D|-10~~~~--12~~~--0---33333333-|     |-1010-12----1010-12----|X4
A|-8~~~~~--10~~~--0---33333333-|     |-8-8--10----8-8--10----|
D|-8~~~~~--10~~~--0---33333333-|     |-8-8--10~---8-8--10~---|
                      ....

Breakdown/Guitar 2(2:28)
e|----------------------------------------------------------|
B|----------------------------------------------------------|
G|-2-2-2--2-2-2--2-2-2--2-2-2---101010-101010-9-9-9--9-9-9--|
D|-0-0-0--0-0-0--0-0-0--0-0-0---101010-101010-101010-101010-|X4
A|-0-0-0--0-0-0--0-0-0--0-0-0---8-8-8--8-8-8--8-8-8--8-8-8--|
D|-0-0-0--0-0-0--0-0-0--0-0-0---8-8-8--8-8-8--8-8-8--8-8-8--|

Guitar 1(2:38)(tremelo pick)
e|-----|----------------------------|
B|-----|----------10------------10--|
G|-9---|-9-10-12-------9-10-12------|
D|-----|----------------------------|X2
A|-----|----------------------------|
D|-----|----------------------------|

Both Guitars play Pre-chorus and chorus again
Then

Chorus 3/Guitar 1                                       End
(3:26)                                                  With
e|----8----------8----------8--------88888888888888888-|-8--|
B|--6---6-8----6---6-8----6---6-8----66666666655555555-|-6--|
G|-----------------------------------------------------|----|
D|---------------------------------------------------X2|----|
A|-----------------------------------------------------|----|
D|-----------------------------------------------------|----|

e|-----------------------------------------------------|----|
B|---------------------------------------------------X2|----|
G|-1010-1010~--1212-1212~--2-2--2-2---555-555-555-555--|-10-|
D|-1010-1010~--1212-1212~--0-0--0-0---333-333-333-333--|-10-|
A|-8-8--8-8~~--1010-1010~--0-0--0-0---333-333-333-333--|-8--|
D|-8-8--8-8~~--1010-1010~--0-0--0-0---333-333-333-333--|-8--|
Добавлено: 19.05.2012
Другие материалы по этой песне:
  • Аккорды и текст

Страница создана 19.05.2012
http://primanota.ru/anberlin/hello-alone-chords.htm
Привет, Гость.
Предлагаем пройти революционный курс по гитаре.
Подарок от PrimaNota.Ru, забирай!