PrimaNota.ru - самый крупный в мире бесплатный архив песенных текстов, аккордов, табулатур и нот


Anathema - Under A Veil Of Black Lace - текст песни, таба, бас-таба, видео

Регистрация Запомнить меня
Войти через:  Facebook Google Twitter Vk Yandex Mail.ru

Anathema - Under A Veil Of Black Lace - текст песни, таба, бас-таба, видео

Печатать
Просмотров: 138
================================================================================
                                A N A T H E M A

                                       -

              U N D E R   A   V E I L   ( O F   B L A C K   L A C E )
================================================================================


                                    SERENADES
                         (c)  Peaceville Records (1993)
                             http://www.anathema.ws/


                                 Standard Tuning
         [All guitars are 7-Strings, except for the 6-string acoustic]
                                  B E A D G B E

                                  Tempo = 50 BPM
                              Time Signature = 4/4



                          -----------------------------
                                 Transcribed by

                                 PADDY MCMULLAN
                           stinkypoohpants@yahoo.co.uk

                                   Version 1.0
                             -----------------------

                             Tablature Symbols Used:


 P.M...    -  Palm Mute
 p         -  Pull-Off
 h         -  Hammer-On
 (/)       -  Legato Slide (Blank space indicates length of slide)
 \         -  Slide Down to/Down From (Blank space indicates length of slide)
 /         -  Slide Up To/Up From (Blank space indicates length of slide)
 ( )       -  Ghost Note/Tied Note/Implied Note
 REST      -  Rest and sustain rest for duration of blank space
 |_3_|     -  Triplet Notes
 |___[1]   -  Ending 1/2/3 etc.
 (2b4r2)   -  Bend note to the indicated pitch, then release
 3~~       -  Vibrato
 *         -  Staccato Note



================================================================================
Section 1.1: Guitar 1 w/ Heavy Distortion (Play once)
================================================================================


  1                     2
||---------------------|--------------------------|
||---------------------|--------------------------|
||---------------------|--------------------------|
||---------------------|--------------------------|
||---------------------|-------5----7~~-- \ 4~~---|
||--0--------7~~-------|-(7)----------------------|
||---------------------|--------------------------|

 3                         4                       5
|-------------------------|-----------------------|----------------------|
|-------------------------|-----------------------|----------------------|
|-------------------------|-----------------------|----------------------|
|-------------------------|-----------------------|----------------------|
|-----------5~~---- \ 4-2-|--4----------(5/7)---\ | -5---------------5 / |
|--0----------------------|-------------(3/5)---\ | -3---------------3 / |
|-------------------------|-----------------------|----------------------|

 6                      7                      8
|----------------------|----------------------|----------------------|
|----------------------|----------------------|----------------------|
|----------------------|----------------------|----------------------|
|----------------------|----------------------|----------------------|
| -7------------7--- \ | -5---------------5 / |--7------------7--- \ |
| -5------------5--- \ | -3---------------3 / |--5------------5--- \ |
|----------------------|----------------------|----------------------|

 10                  11                    12
|-------------------|---------------------|--------------------------|
|-------------------|---------------------|--------------------------|
|-------------------|---------------------|--------------------------|
|-------------------|---------------------|--------------------------|
|--2----------------|---------------------|-------5----7~~-- \ 4~~---|
|--0----------------|--0--------7~~-------|-(7)----------------------|
|-------------------|---------------------|--------------------------|

 13                        14                       15
|-------------------------|------------------------|----------------------|
|-------------------------|------------------------|----------------------|
|-------------------------|------------------------|----------------------|
|-------------------------|------------------------|----------------------|
|-----------5~~---- \ 4-2-|--4-----------(5/7)-- \ | -5---------------5 / |
|--0----------------------|--------------(3/5)-- \ | -3---------------3 / |
|-------------------------|------------------------|----------------------|

 16                     17                     18
|----------------------|----------------------|----------------------|
|----------------------|----------------------|----------------------|
|----------------------|----------------------|----------------------|
|----------------------|----------------------|----------------------|
| -7------------7--- \ |--5---------------5 / | -7------------7-- \--|
| -5------------5--- \ |--3---------------3 / | -5-------------------|
|--5-------------------|----------------------|--5-------------------|

 20
|-----------------------||
|-----------------------||
|-----------------------||
|-----------------------||
|-----------------------||
|--0---------------12\ -||
|------------------12\ -||



During this section the tempo gradually increases to 56 BPM



================================================================================
Section 1.2: Guitar 2 w/ Heavy Distortion (Play once)
================================================================================


  1                           2
||---------------------------|-----------------------------|
||---------------------------|-----------------------------|
||---------------------------|-----------------------------|
||--9------12-------11----11-|-----------------------------|
||-------------9-------9-----|--9---(9/12)----11----7~~- \ |
||---------------------------|-----------------------------|
||---------------------------|-----------------------------|

 3                          4
|--------------------------|---------------------|
|--------------------------|---------------------|
|--------------------------|---------------------|
|--------------4~~-----2-0-|--2------------------|
|--2------2 h5-------------|---------------4~~---|
|--------------------------|---------------------|
|--------------------------|---------------------|

 5                              6                       |__3__|
|------------------------------|--------------------------------|
|------------------------------|--------------------------------|
|------------------------------|--------------------------------|
|------------------------------|--------------------------------|
|--5~~-------7-(7/9)---7-7--5--|-(5\4)-4--4--------4----4h 5p 4-|
|------------------------------|--------------------------------|
|------------------------------|--------------------------------|

 7                                  8
|----------------------------------|----------------------------|
|----------------------------------|----------------------------|
|----------------------------------|----------------------------|
|----------------------------------|----------------------------|
|--5~~------(5/7)-(7/9)---7-7~~-5--|--5 h7-4-----------5--(4\2)-|
|----------------------------------|----------------------------|
|----------------------------------|----------------------------|

 9                                10
|--------------------------------|------------------------------|
|--------------------------------|------------------------------|
|--------------------------------|------------------------------|
|--------------------------------|--9-----(9/12)-------11----11-|
|--2-----(5/7)-(7/9)--7----------|----------------9-------9-----|
|------------------------10-9-7--|------------------------------|
|--------------------------------|------------------------------|

 11                            12
|-----------------------------|------------------------|
|-----------------------------|------------------------|
|-----------------------------|------------------------|
|-----------------------------|------------4~~-----2-0-|
|--9---(9/12)----11----7~~- \ |--2------2--------------|
|-----------------------------|------------------------|
|-----------------------------|------------------------|

 13                      14
|-----------------------|-----------------------------|
|-----------------------|-----------------------------|
|-----------------------|-----------------------------|
|--2--------------------|-----------------------------|
|---------------4~-5--7-|--5~~-------7-(7/9)---7---5--|
|-----------------------|-----------------------------|
|-----------------------|-----------------------------|

 15                         16
|--------------------------|------------------------------|
|--------------------------|------------------------------|
|--------------------------|------------------------------|
|--------------------------|------------------------------|
|-(5\4)-4--4--------5-7--4-|--5~~-----5-7-(7/9)---7~~--5--|
|--------------------------|------------------------------|
|--------------------------|------------------------------|

 17                           18
|----------------------------|------------------------------------||
|----------------------------|------------------------------------||
|----------------------------|------------------------------------||
|----------------------------|------------------------------------||
|-(5\4)-4--------------------|-----------5-7-(7/9)-7-5-4----------||
|--------------7-5~~-----5~~-|-(5/7)---------------------5-3-2----||
|----------------------------|---------------------------------3b4||



================================================================================
Section 2: Guitars 1 & 2 (Play 4 times)
================================================================================


||-------------------------------------------------|
||-------------------------------------------------|
||-------------------------------------------------|
||-------------------------------------------------|
||-------------*----------*----------*-------------|
||--2----2--2--2----2--2--2----2--2--2--2-2-2------|
||--0----0--0--0----0--0--0----0--0--0--0-0-0-3~~--|
         P.M.       ....       ....     .....

|_______________________________________[1,2,3}
|-------------------------------------------| |
|-------------------------------------------| |
|-------------------------------------------|*|
|-------------------------------------------|*|
|-------------*----------0--2----3---0--2~~-| |
|--2----2--2--2----2--2---------------------| |
|--0----0--0--0----0--0---------------------| |
        ....       ....

|_______________________________________[4]
|----------------------------------------||
|------------------------------------R---||
|------------------------------------E---||
|------------------------------------S---||
|------------------------------------T---||
|--2----2--2--2----2--2--5--5-----5------||
|--0----0--0--0----0--0--1--1--0--3------||
        ....       ....       ...



On the second repeat, Guitar 2 replaces the second bar with the following:



|-------------------------------------------| |
|-------------------------------------------| |
|-------------------------------------------|*|
|-----------------------------------0h2-----|*|
|-------------*----------0--2----3------2~~-| |
|--2----2--2--2----2--2---------------------| |
|--0----0--0--0----0--0---------------------| |
        ....       ....



================================================================================
Guitars 1 & 2 play Section 1 once; Guitar 2's variations are tabbed below:
================================================================================


  1                           2
||---------------------------|-------------------------------|
||---------------------------|-------------------------------|
||---------------------------|-------------------------------|
||--9------12-------11----11-|-------------------------------|
||-------------9-------9-----|--9---(9/12)----11--- \ 7~~- \ |
||---------------------------|-------------------------------|
||---------------------------|-------------------------------|

 3                          4
|--------------------------|-----------------------|
|--------------------------|-----------------------|
|--------------------------|-----------------------|
|--------------------------|-----------------------|
|--2------2 / 9~~----(7\5)-|-(5/7)-----------4~~---|
|--------------------------|-----------------------|
|--------------------------|-----------------------|

 5                               6
|-------------------------------|---------------------------------|
|-------------------------------|---------------------------------|
|-------------------------------|---------------------------------|
|-------------------------------|--(5\4)--------------------------|
|--5~~-------7-(7/9)---7---5- \ |--------4--5-5---4----4 h5-(5/7)-|
|-------------------------------|---------------------------------|
|-------------------------------|---------------------------------|

 7                                 8
|---------------------------------|------------------------------|
|---------------------------------|------------------------------|
|---------------------------------|------------------------------|
|---------------------------------|------------------------------|
|--5~~------(5/7)-(7/9)---7~~--9--|--10-7-7--7---5-4----4 h5-4-0-|
|---------------------------------|------------------------------|
|---------------------------------|------------------------------|

 9                                 10
|---------------------------------|------------------------------|
|---------------------------------|------------------------------|
|---------------------------------|------------------------------|
|---------------------------------|--9-----(9/12)-------11----11-|
|--2-----(5/7)-(7/9)--7-----------|----------------9-------9-----|
|------------------------10-9-7---|------------------------------|
|-------------------------------7-|------------------------------|

11 |__3___|                                  12
|-------------------------------------------|------------------------|
|-------------------------------------------|------------------------|
|-------------------------------------------|------------------------|
|-(11h12p11)--------------------------------|------------4~~-----2-0-|
|--------------9--(9/12)----11--- \ 7~~-- \ |--2------2--------------|
|-------------------------------------------|------------------------|
|-------------------------------------------|------------------------|

 13                    14                      15
|---------------------|-----------------------|----------------------|
|---------------------|-----------------------|----------------------|
|---------------------|-----------------------|----------------------|
|--2------------------|-----------------------|----------------------|
|---------------4~~---|--2~~----------(4/5)---|--4-----------(5/7)---|
|---------------------|-----------------------|----------------------|
|---------------------|-----------------------|----------------------|

 16                         17
|--------------------------|------------------------------|
|--------------------------|------------------------------|
|--------------------------|------------------------------|
|--------------------------|------------------------------|
|--5~~----------(7/9)- \ 7-|--7-- \ 5-4  h 5-4----4-5-4-0-|
|--------------------------|------------------------------|
|--------------------------|------------------------------|

 18
|---------------------------------------||
|---------------------------------------||
|---------------------------------------||
|---------------------------------------||
|-(0h2)----- / 5-7-(7/9)-7-5-4----------||
|------------------------------5-3-2----||
|------------------------------------3b4||



================================================================================
Guitars 1 and 2 play Section 2 four times
================================================================================

================================================================================
Section 3: Guitar 3 [Acoustic] Play once [ Tempo = 70 BPM ]
================================================================================


* Let notes ring wherever possible *


||-----------------------------|--------------------------|
||--------------0--------------|--1-----0-----------0-----|
||-----------2-----2-----------|--------------2-----------|
||--------------------0--------|-----------0-----------0--|
||--------2--------------2-----|-----2-----------2--------|
||--3-----------------------3--|--------------------------|


|--------------------------|--------------------------|
|-----------0--------------|--1-----0--------0--------|
|--------2-----2-----------|--------------2-----0-----|
|-----------------0--------|-----------0-----------0--|
|-----0--------------0-----|--------------------------|
|--2--------------------2--|-----2--------------------|


|-----------------------------|--------------------------|
|--------------0--------------|--1-----0-----------0-----|
|-----------2-----2-----------|-----2--------2-----------|
|--------------------2--------|-----------2-----------2--|
|--------2--------------2-----|-----------------2--------|
|--0-----------------------0--|--------------------------|


|-----------------------||--------------------||
|-----------------------||----------R-       -||
|-----------------------||----------E-       -||
|------------2h3--------||--(3)-----S-       -||
|-------3---------------||--(3)-----T-       -||
|--1--------------------||--(1)---------------||



================================================================================
Section 4.1: Guitar 1 (Play once) [ Tempo = 76 BPM ]
================================================================================


The first bar overlaps with the last bar of Section 3

  x                     1                   2
||--------------------||-------------------|-------------------|
||--R-      ----------||-------------------|-------------------|
||--E-      ----------||-------------------|-------------------|
||--S-      ----------||-------------------|-------------------|
||--T-      ----------||-------------------|-------------------|
||--------------------||-------------------|-------------------|
||-----------3--------||--1----------------|--3----------------|

 3                   4                     5
|-------------------|---------------------|------------------------|
|-------------------|---------------------|------------------------|
|-------------------|---------------------|------------------------|
|-------------------|---------------------|------------------------|
|--2----------------|--(3    b 4     r 3)-|------------------------|
|-------------------|---------------------|------------------------|
|-------------------|---------------------|--1--------(1/5)----- \ |

 6                        7                   8
|------------------------|-------------------|--------------------------|
|------------------------|-------------------|--------------------------|
|------------------------|-------------------|--------------------------|
|------------------------|-------------------|--------------------------|
|------------------------|-------------------|--------------------------|
|-----------2--3--- / 5--|--3----------------|-(3b 4r 3)----(3  b4  r3)-|
|--3---------------------|-------------------|--------------------------|

 9                   10                       11
|-------------------|------------------------|-------------------|
|-------------------|------------------------|-------------------|
|-------------------|------------------------|-------------------|
|-------------------|------------------------|-------------------|
|-------------------|------------------------|-------------------|
|--2----------------|--2--------(2   b3  r2)-|--0----------------|
|-------------------|------------------------|-------------------|

 12                   13                  14
|--------------------|-------------------|--------------------|
|--------------------|-------------------|--------------------|
|--------------------|-------------------|--------------------|
|--------------------|-------------------|--------------------|
|--------------------|-------------------|--------------------|
|--(0)----------0----|--1----------------|--(1)---------------|
|--------------------|-------------------|-----------3--------|

 15                     16                  17
|----------------------|-------------------|-------------------|
|----------------------|-------------------|-------------------|
|----------------------|-------------------|-------------------|
|----------------------|-------------------|-------------------|
|----------------------|-------------------|--2----------------|
|----------------------|-------------------|-------------------|
|--1---------------- \ |--3----------------|-------------------|

 18                     19                       20
|----------------------|------------------------|------------------------|
|----------------------|------------------------|------------------------|
|----------------------|------------------------|------------------------|
|----------------------|------------------------|------------------------|
|--(3  b4 r3)-3--------|------------------------|------------------(3/5)-|
|----------------------|------------------------|-----------2--3---------|
|----------------------|--1--------(1/5)----- \ |--3---------------------|

 21                  22                     23
|-------------------|----------------------|-------------------|
|-------------------|----------------------|-------------------|
|-------------------|----------------------|-------------------|
|-------------------|----------------------|-------------------|
|--5----------------|--(5)------(5  b6 r5)-|--4----------------|
|--3----------------|--(3)------(3  b4 r3)-|--2----------------|
|-------------------|----------------------|-------------------|

 24                     25                  26
|----------------------|-------------------|---------------------|
|----------------------|-------------------|---------------------|
|----------------------|-------------------|---------------------|
|----------------------|-------------------|---------------------|
|--(4)------(4  b5 r4)-|--2----------------|--(2)-------------2--|
|--(2)------(2  b3 r3)-|--0----------------|--(0)-------------2--|
|----------------------|-------------------|---------------------|

 27                  28                  29
|-------------------|-------------------|-------------------|
|-------------------|-------------------|-------------------|
|-------------------|-------------------|-------------------|
|-------------------|-------------------|-------------------|
|-------------------|-------------------|--5----------------|
|--2----------------|--(2)--------------|--3----------------|
|--0----------------|--(0)--------------|-------------------|

 30                     31                  32
|----------------------|-------------------|----------------------|
|----------------------|-------------------|----------------------|
|----------------------|-------------------|----------------------|
|----------------------|-------------------|----------------------|
|--(5)------(5  b6 r5)-|--4----------------|--(4)------(4  b5 r4)-|
|--(3)------(3  b4 r3)-|--2----------------|--(2)------(2  b3 r3)-|
|----------------------|-------------------|----------------------|

 33                  34                    35
|-------------------|---------------------|-------------------|
|-------------------|---------------------|-------------------|
|-------------------|---------------------|-------------------|
|-------------------|---------------------|-------------------|
|--2----------------|--(2)-------------2--|-------------------|
|--0----------------|--(0)-------------2--|--2----------------|
|-------------------|---------------------|--0----------------|

 36                  37
|-------------------|------------------------|
|-------------------|------------------------|
|-------------------|------------------------|
|-------------------|------------------------|
|-------------------|-------------*----------|
|--(2)--------------|-(2)---2--2--2----2--2--|
|--(0)--------------|-(0)---0--0--0----0--0--|
                            ....       ....
 38
|-----------------------------||
|-----------------------------||
|-----------------------------||
|-----------------------------||
|--*----------*---------------||
|--2----2--2--2----2-2-2------||
|--0----0--0--0----0-0-0-3~~--||
        ....



During this section the tempo gradually increases to 112 BPM



================================================================================
Section 4.2: Guitar 2 (Play once)
================================================================================


The first bar overlaps with the last bar of Section 3


  x                     1                   2
||--------------------||--------------------|----------------------|
||--R-      ----------||--------------------|----------------------|
||--E-      ----------||--------------------|----------------------|
||--S-      ----------||--------------------|----------------------|
||--T-      ----------||--------------------|----------------------|
||-----------5--------||--3------------3----|--5------------5--- \ |
||--------------------||--------------------|----------------------|

 3                    4                       5
|--------------------|-----------------------|--------------------|
|--------------------|-----------------------|--------------------|
|--------------------|-----------------------|--------------------|
|--------------------|-----------------------|--------------------|
|--------------------|-----------------------|--------------------|
|--2------------2----|--3----------(3 b4 r3)-|--3--------3--------|
|--------------------|-----------------------|--------------------|

 6                      7                   8
|----------------------|-------------------|--------------------|
|----------------------|-------------------|--------------------|
|----------------------|-------------------|--------------------|
|----------------------|-------------------|--------------------|
|----------------------|-------------------|--------------------|
|--5--------5--5----5--|--7----------------|--7--------7--------|
|----------------------|-------------------|--------------------|

 9                   10                           11
|-------------------|----------------------------|-------------------|
|-------------------|----------------------------|-------------------|
|-------------------|----------------------------|-------------------|
|-------------------|----------------------------|-------------------|
|-------------------|----------------------------|-------------------|
|--9----------------|--(9)------(9b10)--(9b10r9)-|--7----------------|
|-------------------|----------------------------|-------------------|

 12                    13                  14
|---------------------|-------------------|--------------------|
|---------------------|-------------------|--------------------|
|---------------------|-------------------|--------------------|
|---------------------|-------------------|--------------------|
|---------------------|-------------------|--------------------|
|--(7)------7----7----|--8----------------|--(8)------5--------|
|---------------------|-------------------|--------------------|

 15                    16                     17
|---------------------|----------------------|-------------------|
|---------------------|----------------------|-------------------|
|---------------------|----------------------|-------------------|
|---------------------|----------------------|-------------------|
|---------------------|----------------------|-------------------|
|--3---------------3--|--5------------5--- \ |--2----------------|
|---------------------|----------------------|-------------------|

 18                     19                     20
|----------------------|----------------------|-----------------------|
|----------------------|----------------------|-----------------------|
|----------------------|----------------------|-----------------------|
|----------------------|----------------------|-----------------------|
|----------------------|----------------------|-----------------------|
|--3---------(3 b4 r3)-|--3-------(5/7)-------|--5------5--5--5----5--|
|----------------------|----------------------|-----------------------|

 21                  22                     23
|-------------------|----------------------|-------------------|
|-------------------|----------------------|-------------------|
|-------------------|----------------------|-------------------|
|-------------------|----------------------|-------------------|
|--5----------------|--(5)------5----5-- / | -9----------------|
|-------------------|----------------------|-------------------|
|-------------------|----------------------|-------------------|

 24                   25                   26
|--------------------|--------------------|-----------------------|
|--------------------|--------------------|-----------------------|
|--------------------|--------------------|-----------------------|
|--------------------|--------------------|-----------------------|
|--(9)------9--------|--10----------------|--(10)-----9----- \ 7--|
|--------------------|--------------------|-----------------------|
|--------------------|--------------------|-----------------------|

 27                  28                  29
|-------------------|-------------------|-------------------|
|-------------------|-------------------|-------------------|
|-------------------|-------------------|-------------------|
|-------------------|-------------------|-------------------|
|-------------------|-------------------|--5----------------|
|--2----------------|--(2)--------------|-------------------|
|--0----------------|--(0)--------------|-------------------|

 30                     31                  32
|----------------------|-------------------|--------------------|
|----------------------|-------------------|--------------------|
|----------------------|-------------------|--------------------|
|----------------------|-------------------|--------------------|
|--(5)------5----5-- / | -9----------------|--(9)------9--------|
|----------------------|-------------------|--------------------|
|----------------------|-------------------|--------------------|

 33                   34                      35
|--------------------|-----------------------|-------------------|
|--------------------|-----------------------|-------------------|
|--------------------|-----------------------|-------------------|
|--------------------|-----------------------|-------------------|
|--10----------------|--(10)-----9----- \ 7--|-------------------|
|--------------------|-----------------------|--2----------------|
|--------------------|-----------------------|--0----------------|

 36                  37
|-------------------|------------------------|
|-------------------|------------------------|
|-------------------|------------------------|
|-------------------|------------------------|
|-------------------|-------------*----------|
|--(2)--------------|-(2)---2--2--2----2--2--|
|--(0)--------------|-(0)---0--0--0----0--0--|
                            ....       ....
 38
|-----------------------------||
|-----------------------------||
|-----------------------------||
|-----------------------------||
|--*----------*---------------||
|--2----2--2--2----2-2-2------||
|--0----0--0--0----0-0-0-3~~--||
        ....       .....



================================================================================
Section 4.3: Guitar 4 w/ Heavy Distortion (Play once)
================================================================================


  x                       1
||----------------------||-------------------------|
||--R-      ------------||-------------------------|
||--E-      ------------||-------------------------|
||--S-      ------------||------(5/7) h 9--7-------|
||--T-      -5------- \ ||--3----------------------|
||----------------------||-------------------------|
||----------------------||-------------------------|

 2                              3
|------------------------------|--------------------------|
|------------------------------|--------------------------|
|------------------------------|--------------------------|
|-(7)---7 h 9--(9/10)--9 \ 5---|-(5)---(5/7) h 9--7~~-----|
|------------------------------|--------------------------|
|------------------------------|--------------------------|
|------------------------------|--------------------------|

 4                         5
|-------------------------|--------------------------|
|-------------------------|--------------------------|
|-------------------------|--------------------------|
|--10----9 \ 4--5~~-------|-(5)---(5/7) h 9--7~~-----|
|-------------------------|--------------------------|
|-------------------------|--------------------------|
|-------------------------|--------------------------|

 6                          7
|--------------------------|--------------------------|
|--------------------------|--------------------------|
|--------------------------|--------------------------|
|--9h10----9----7--5----4--|--5----(5/7) h 9--7~~-----|
|--------------------------|--------------------------|
|--------------------------|--------------------------|
|--------------------------|--------------------------|

 8                         9
|-------------------------|------------------------|
|-------------------------|------------------------|
|-------------------------|------------------------|
|--7h10----9----7----9----|--9----7 h 9--7~~-------|
|-------------------------|------------------------|
|-------------------------|------------------------|
|-------------------------|------------------------|

 10                           11
|----------------------------|--------------------------|
|----------------------------|--------------------------|
|----------------------------|--------------------------|
|--(7/10)----9----7--9 \ 5~~-|-(5)---(5/7) h 9--7~~-----|
|----------------------------|--------------------------|
|----------------------------|--------------------------|
|----------------------------|--------------------------|

 12                        13
|-------------------------|---------------------------------|
|-------------------------|---------------------------------|
|-------------------------|---------------------------------|
|-(7/10)---9----7----9----|-(9)---9 h 10--(10/12)---10---9--|
|-------------------------|---------------------------------|
|-------------------------|---------------------------------|
|-------------------------|---------------------------------|

 14                        15
|-------------------------|-------------------------|
|-------------------------|-------------------------|
|-------------------------|-------------------------|
|--10~~------ \ 7~~-------|--5----(5/7) h 9--7------|
|-------------------------|-------------------------|
|-------------------------|-------------------------|
|-------------------------|-------------------------|

 16                             17
|------------------------------|--------------------------|
|------------------------------|--------------------------|
|------------------------------|--------------------------|
|-(7)---7 h 9--(9/10)--9- \ 5--|-(5)---(5/7) h 9--7~~-----|
|------------------------------|--------------------------|
|------------------------------|--------------------------|
|------------------------------|--------------------------|

 18                          19
|---------------------------|--------------------------|
|---------------------------|--------------------------|
|---------------------------|--------------------------|
|--10----9 / 16--17~~-------|-(17)--(9/7) h 9--7~~-----|
|---------------------------|--------------------------|
|---------------------------|--------------------------|
|---------------------------|--------------------------|

 20                            21                   22
|-----------------------------|--------------------|---------------------|
|-----------------------------|--------------------|---------------------|
|-----------------------------|--------------------|---------------------|
|-(7/10)----(9\7)--7--5----4--|--5-----------------|-----------5---------|
|-----------------------------|-----------5--------|--(5)-----------5----|
|-----------------------------|--------------------|---------------------|
|-----------------------------|--------------------|---------------------|

 23                   24                    25
|--------------------|---------------------|----------------------------|
|--------------------|---------------------|----------------------------|
|--------------------|---------------------|----------------------------|
|--7-----------------|-----------7---------|--(7/9)------7h 9p 7-5------|
|-----------9--------|--(9)-----------9----|----------------------------|
|--------------------|---------------------|----------------------------|
|--------------------|---------------------|----------------------------|

 26                       27                     28
|------------------------|----------------------|--------------------------|
|------------------------|----------------------|--------------------------|
|------------------------|----------------------|--------------------------|
|--(5)-----(9/10)-----9--|--9----7--9--7--------|-(9/10)----9----10----9---|
|------------------------|----------------------|--------------------------|
|------------------------|----------------------|--------------------------|
|------------------------|----------------------|--------------------------|

 29                   30                    31
|--------------------|---------------------|--------------------|
|--------------------|---------------------|--------------------|
|--------------------|---------------------|--------------------|
|--5-----------------|-----------5---------|--7-----------------|
|-----------5--------|--(5)-----------5----|-----------9--------|
|--------------------|---------------------|--------------------|
|--------------------|---------------------|--------------------|

 32                    33                      34
|---------------------|-----------------------|------------------------|
|---------------------|-----------------------|------------------------|
|---------------------|-----------------------|------------------------|
|-----------7---------|-(7/9)-----------------|----------(9/10)-----9--|
|--(5)-----------9----|-------------10--------|--(10)------------------|
|---------------------|-----------------------|------------------------|
|---------------------|-----------------------|------------------------|

 35                     36                         37
|----------------------|--------------------------|----------------------|
|----------------------|--------------------------|----------------------|
|----------------------|--------------------------|----------------------|
|--9----7--9--7--------|-(9/10)----9----10----9---|--9----7--9--7--------|
|----------------------|--------------------------|----------------------|
|----------------------|--------------------------|----------------------|
|----------------------|--------------------------|----------------------|

 38
|----------------------------||
|----------------------------||
|----------------------------||
|--(9/10)----9----10----9----||
|----------------------------||
|----------------------------||
|----------------------------||



================================================================================
Guitars 1 & 2 play Section 2 twelve times, ending on the following:
================================================================================


||------------------------||
||-----------------R-    -||
||-----------------E-    -||
||-----------------S-    -||
||--7-------9-- \--T-    -||
||--5-------7-- \---------||
||-------0----------------||



During the repeats of Section 2 the tempo gradually increases to 128 BPM



================================================================================
Lead During End Section: Guitar 4 (Play once)
================================================================================


This is a continuation of Section 4.3


  1                          2
||--------------------------|-----------------------|
||--------------------------|-----------------------|
||--------------------------|-----------------------|
||-(9/10)----9----10----9---|-(9)---7 h 9--7--------|
||--------------------------|-----------------------|
||--------------------------|-----------------------|
||--------------------------|-----------------------|

 3                          4
|--------------------------|-----------------------|
|--------------------------|-----------------------|
|--------------------------|-----------------------|
|-(9/10)--9----------------|--------7--9--7--------|
|--------------10----------|-(10)------------------|
|--------------------------|-----------------------|
|--------------------------|-----------------------|

 5                          6
|--------------------------|-----------------------|
|--------------------------|-----------------------|
|--------------------------|-----------------------|
|-(9/10)----9----10----9---|-(9)---7 h 9--7--------|
|--------------------------|-----------------------|
|--------------------------|-----------------------|
|--------------------------|-----------------------|

 7                           8
|---------------------------|-----------------------|
|---------------------------|-----------------------|
|---------------------------|-----------------------|
|-(9/10)--9-----------------|--------7--9--7--------|
|--------------10-----------|-(10)------------------|
|---------------------------|-----------------------|
|---------------------------|-----------------------|

 9                          10
|--------------------------|-----------------------|
|--------------------------|-----------------------|
|--------------------------|-----------------------|
|-(9/10)---9----10----9----|-(9)---7 h 9--7--------|
|--------------------------|-----------------------|
|--------------------------|-----------------------|
|--------------------------|-----------------------|

 11                         12
|--------------------------|----------------------|
|--------------------------|----------------------|
|--------------------------|----------------------|
|-(9/10)--9----------------|-------7--9--7--------|
|-------------10-----------|-(10)-----------------|
|--------------------------|----------------------|
|--------------------------|----------------------|

 13                         14
|--------------------------|-----------------------|
|--------------------------|-----------------------|
|--------------------------|-----------------------|
|-(9/10)---9----10----9----|-(9)---7 h 9--7--------|
|--------------------------|-----------------------|
|--------------------------|-----------------------|
|--------------------------|-----------------------|

 15
|-----------------------------||
|-----------------------------||
|-----------------------------||
|--(9/10)----9----------------||
|---------------10-------- \ -||
|-----------------------------||
|-----------------------------||



================================================================================
End
================================================================================


Tab summary:        Section 1 x 1
                    Section 2 x 4
                    Section 1 x 1
                    Section 2 x 4
                    Section 3 x 1
                    Section 4 x 1
                    Section 2 x 12 + Lead

                    END
Добавлено: 28.03.2012
Другие материалы по этой песне:

Страница создана 24.03.2012
http://primanota.ru/anathema/under-a-veil-of-black-lace-chords.htm
Привет, Гость.
Предлагаем пройти революционный курс по гитаре.
Подарок от PrimaNota.Ru, забирай!