PrimaNota.ru - самый крупный в мире бесплатный архив песенных текстов, аккордов, табулатур и нот


Anathema - Looking Outside Inside - аккорды и текст, видео

Регистрация Запомнить меня
Войти через:  Facebook Google Twitter Vk Yandex Mail.ru

Anathema - Looking Outside Inside - аккорды и текст, видео

Печатать
Просмотров: 124
Уроки эстрадного вокала в Санкт-Петербурге
Looking Outside Inside
Anathema
Version 1.0
[e-------0-----------0-----------0-----------0-----
b---------4-----------4-----------4-----------4---
g-----6-----6-----6-----6-----6-----6-----6-----6-
D---7-----------7-----------7-----------7---------
A-0-----------0-----------0-----------0-----------
E-------------------------------------------------

e-------0-----------0-----------0-----------0-----
b---------0-----------0-----------0-----------0---
g-----6-----6-----6-----6-----6-----6-----6-----6-
D---6-----------6-----------6-----------6---------
A-4-----------4-----------4-----------4-----------
E-------------------------------------------------

e-------0-----------0-----------0-----------0-----
b---------4-----------4-----------4-----------4---
g-----6-----6-----6-----6-----6-----6-----6-----6-
D---7-----------7-----------7-----------7---------
A-0-----------0-----------0-----------0-----------
E-------------------------------------------------

e-------0-----------0-----------0-----------0-----
b---------0-----------0-----------0-----------0---
g-----6-----6-----6-----6-----6-----6-----6-----6-
D---6-----------6-----------6-----------6---------
A-4-----------4-----------4-----------4-----------
E-------------------------------------------------]
 Is this the one thought it was insane?
[e-------0-----------0-----------0-----------0-----
b---------4-----------4-----------4-----------4---
g-----6-----6-----6-----6-----6-----6-----6-----6-
D---7-----------7-----------7-----------7---------
A-0-----------0-----------0-----------0-----------
E-------------------------------------------------]
 coming down against it all
[e-------0-----------0-----------0-----------0-----
b---------0-----------0-----------0-----------0---
g-----6-----6-----6-----6-----6-----6-----6-----6-
D---6-----------6-----------6-----------6---------
A-4-----------4-----------4-----------4-----------
E-------------------------------------------------

e-------0-----------0-----------0-----------0-----
b---------4-----------4-----------4-----------4---
g-----6-----6-----6-----6-----6-----6-----6-----6-
D---7-----------7-----------7-----------7---------
A-0-----------0-----------0-----------0-----------
E-------------------------------------------------]
 didn't want it - didn't need it - didn't want it
[e-------0-----------0-----------0-----------0-----
b---------0-----------0-----------0-----------0---
g-----6-----6-----6-----6-----6-----6-----6-----6-
D---6-----------6-----------6-----------6---------
A-4-----------4-----------4-----------4-----------
E-------------------------------------------------

e-------0-----------0-----------0-----------0-----
b---------0-----------0-----------0-----------0---
g-----5-----5-----5-----5-----7-----7-----7-----7-
D---5-----------5-----------7-----------7---------
A-3-----------3-----------5-----------5-----------
E-------------------------------------------------]
 Twisted face of fading beauty
[e-------0-----------0-----------0-----------0-----
b---------4-----------4-----------4-----------4---
g-----6-----6-----6-----6-----6-----6-----6-----6-
D---7-----------7-----------7-----------7---------
A-0-----------0-----------0-----------0-----------
E-------------------------------------------------]
 count the cost of suffering
[e-------0-----------0-----------0-----------0-----
b---------0-----------0-----------0-----------0---
g-----6-----6-----6-----6-----6-----6-----6-----6-
D---6-----------6-----------6-----------6---------
A-4-----------4-----------4-----------4-----------
E-------------------------------------------------]
 cannot see the day before you
[e-------0-----------0-----------0-----------0-----
b---------4-----------4-----------4-----------4---
g-----6-----6-----6-----6-----6-----6-----6-----6-
D---7-----------7-----------7-----------7---------
A-0-----------0-----------0-----------0-----------
E-------------------------------------------------]
 only feel what's deep inside
[e-------0-----------0-----------0-----------0-----
b---------0-----------0-----------0-----------0---
g-----6-----6-----6-----6-----6-----6-----6-----6-
D---6-----------6-----------6-----------6---------
A-4-----------4-----------4-----------4-----------
E-------------------------------------------------]
 trying to change it makes no difference
[e-------0-----------0-----------0-----------0-----
b---------4-----------4-----------4-----------4---
g-----6-----6-----6-----6-----6-----6-----6-----6-
D---7-----------7-----------7-----------7---------
A-0-----------0-----------0-----------0-----------
E-------------------------------------------------]
 didn't want it - didn't need it - didn't want it
[e-------0-----------0-----------0-----------0-----
b---------0-----------0-----------0-----------0---
g-----6-----6-----6-----6-----6-----6-----6-----6-
D---6-----------6-----------6-----------6---------
A-4-----------4-----------4-----------4-----------
E-------------------------------------------------

e-------0-----------0-----------0-----------0-----
b---------4-----------4-----------4-----------4---
g-----6-----6-----6-----6-----6-----6-----6-----6-
D---7-----------7-----------7-----------7---------
A-0-----------0-----------0-----------0-----------
E-------------------------------------------------]
 didn't want it - didn't need it - didn't want it
[e-------0-----------0-----------0-----------0-----
b---------0-----------0-----------0-----------0---
g-----6-----6-----6-----6-----6-----6-----6-----6-
D---6-----------6-----------6-----------6---------
A-4-----------4-----------4-----------4-----------
E-------------------------------------------------

e-------0-----------0-----------0-----------0-----
b---------0-----------0-----------0-----------0---
g-----5-----5-----5-----5-----7-----7-----7-----7-
D---5-----------5-----------7-----------7---------
A-3-----------3-----------5-----------5-----------
E-------------------------------------------------

e-------0-----------0-----------0-----------0-----
b---------0-----------0-----------0-----------0---
g-----6-----6-----6-----6-----6-----6-----6-----6-
D---6-----------6-----------6-----------6---------
A-4-----------4-----------4-----------4-----------
E-------------------------------------------------

e-------0-----------0-----------0-----------0-----
b---------0-----------0-----------0-----------0---
g-----5-----5-----5-----5-----7-----7-----7-----7-
D---5-----------5-----------7-----------7---------
A-3-----------3-----------5-----------5-----------
E-------------------------------------------------

e-------0-----------0-----------0-----------0-----
b---------0-----------0-----------0-----------0---
g-----6-----6-----6-----6-----6-----6-----6-----6-
D---6-----------6-----------6-----------6---------
A-4-----------4-----------4-----------4-----------
E-------------------------------------------------

e-------0-----------0-----------0-----------0-----
b---------0-----------0-----------0-----------0---
g-----5-----5-----5-----5-----7-----7-----7-----7-
D---5-----------5-----------7-----------7---------
A-3-----------3-----------5-----------5-----------
E-------------------------------------------------]
 Let me go...
(i guess is something like this, although i rather just
strum through this part)
   Gb                  G
[e-----0---------0---------0---------0--------------
b-------0---------0---------0---------0------------
g---------3---------3---------3---------4----------
D--------------------------------------------------
A--(4)-------(4)-------(4)-------(5)---------------
E-2---------2---------2---------3------------------
  Gb                  G
e-----0---------0---------0---------0--------------
b-------0---------0---------0---------0------------
g---------3---------3---------3---------4----------
D--------------------------------------------------
A--(4)-------(4)-------(4)-------(5)---------------
E-2---------2---------2---------3------------------
  Gb                  G
e-----0---------0---------0---------0--------------
b-------0---------0---------0---------0------------
g---------3---------3---------3---------4----------
D--------------------------------------------------
A--(4)-------(4)-------(4)-------(5)---------------
E-2---------2---------2---------3------------------]
  Gb                  G    (Distortion...)
[e-----0---------0---------0---------0--------------
b-------0---------0---------0---------0------------
g---------3---------3---------3---------4----------
D--------------------------------------------------
A--(4)-------(4)-------(4)-------(5)---------------
E-2---------2---------2---------3------------------]
 Looking outside inside craving for some_thing...
       C5
[e--------------------------------------
b--------------------------------------
g--9--9--9-----------------------------
D--10-10-10--keep struming till _thing_
A--10-10-10----------------------------
E--8--8--8-----------------------------

e-------------------------------
b-------------------------------
g-3-3-3-3-3-4-3-3-3-3-3-3-3-4-3-
D-4-4-4-4-4-5-4-4-4-4-4-4-4-5-4-
A-4-4-4-4-4-5-4-4-4-4-4-4-4-5-4-
E-2-2-2-0-2-3-2-0-2-2-2-0-2-3-2-]
    hoping for anything - I'll believe in anything
[e-----------------------------------------------------------------
b-----------------------------------------------------------------
g--9--------------------------------------------------------------
D--10-------keep on strumin till _thing again---------------------
A--10-------------------------------------------------------------
E--8--------------------------------------------------------------

e-------------------------------
b-------------------------------
g-3-3-3-3-3-4-3-3-3-3-3-3-3-4-3-
D-4-4-4-4-4-5-4-4-4-4-4-4-4-5-4-
A-4-4-4-4-4-5-4-4-4-4-4-4-4-5-4-
E-2-2-2-0-2-3-2-0-2-2-2-0-2-3-2-]
  who has eyes that see - who wants to believe?
[e-----------------------------------------------------------------
b-----------------------------------------------------------------
g--9--------------------------------------------------------------
D--10----strum ---------------------------------------------------
A--10-------------------------------------------------------------
E--8--------------------------------------------------------------

e-------------------------------
b-------------------------------
g-3-3-3-3-3-4-3-3-3-3-3-3-3-4-3-
D-4-4-4-4-4-5-4-4-4-4-4-4-4-5-4-
A-4-4-4-4-4-5-4-4-4-4-4-4-4-5-4-
E-2-2-2-0-2-3-2-0-2-2-2-0-2-3-2-]
in something, in anything? - in one thing, in a free_
[e-----------------------------------------------------------------
b-----------------------------------------------------------------
g--9--------------------------------------------------------------
D--10----strum ---------------------------------------------------
A--10-------------------------------------------------------------
E--8--------------------------------------------------------------]
 _dom
[e------------------------------------
b------------------------------------
g-3-3-3-3-3-4-3-3-3-3-3-9--9--9---4-4
D-4-4-4-4-4-5-4-4-4-4-4-10-10-10--5-5
A-4-4-4-4-4-5-4-4-4-4-4-10-10-10--5-5
E-2-2-2-0-2-3-2-0-2-2-2-8--8--8---3-3]
looking outside inside...
[e------------------------------------
b------------------------------------
g-3-3-3-3-3-4-3-3-3-3-3-9--9--9---4-4
D-4-4-4-4-4-5-4-4-4-4-4-10-10-10--5-5 } repeat 2x then
A-4-4-4-4-4-5-4-4-4-4-4-10-10-10--5-5
E-2-2-2-0-2-3-2-0-2-2-2-8--8--8---3-3

e-------------------------------
b-------------------------------
g-3-3-3-3-3-4-3-3-3-3-3-3-3-3-3-
D-4-4-4-4-4-5-4-4-4-4-4-4-4-4-4-
A-4-4-4-4-4-5-4-4-4-4-4-4-4-4-4-
E-2-2-2-0-2-3-2-0-2-2-2-2-2-2-2-]
 self assist pandemonium - broken promises
[e----------------------------------------
b----------------------------------------
g--9-------------------------------------
D--10----strum --------------------------
A--10------------------------------------
E--8-------------------------------------

e-------------------------------
b-------------------------------
g-3-3-3-3-3-4-3-3-3-3-3-3-3-4-3-
D-4-4-4-4-4-5-4-4-4-4-4-4-4-5-4-
A-4-4-4-4-4-5-4-4-4-4-4-4-4-5-4-
E-2-2-2-0-2-3-2-0-2-2-2-0-2-3-2-]
 died alive flying high - you caught me in your eye
[e----------------------------------------
b----------------------------------------
g--9-------------------------------------
D--10----strum --------------------------
A--10------------------------------------
E--8-------------------------------------

e-------------------------------
b-------------------------------
g-3-3-3-3-3-4-3-3-3-3-3-3-3-4-3-
D-4-4-4-4-4-5-4-4-4-4-4-4-4-5-4-
A-4-4-4-4-4-5-4-4-4-4-4-4-4-5-4-
E-2-2-2-0-2-3-2-0-2-2-2-0-2-3-2-]
 disintegrated insinerated - this is not how i want to be
                                        
--0-----------0------0-------0----------------------0--
--5-----------7------8-------10---------------------11-
[--0-----------0------0-------0----------------------0--] gtr 2
-------------------------------------------------------
-------------------------------------------------------
-------------------------------------------------------
(  trem. pick with wah - listen to this part for tempo - 4:00)
[e-------------------------------
b-------------------------------
g-3-3-3-3-3-4-3-3-3-3-3-3-3-4-3-]
[D-4-4-4-4-4-5-4-4-4-4-4-4-4-5-4-] gtr1 enters after "to_be"
[A-4-4-4-4-4-5-4-4-4-4-4-4-4-5-4-
E-2-2-2-0-2-3-2-0-2-2-2-0-2-3-2-]
  too much is coming through, some one please tell me what to do
                                         
--0--------0-----------------0---------//-----------0----------
--5--------7-----------------8---------//-----------14---------
[--0--------0-----------------0---------//-----------0----------] gtr 2
---------------------------------------------------------------
---------------------------------------------------------------
---------------------------------------------------------------
(  trem. pick with wah - listen to this part for tempo - 4:12)
[e--------------------------------------
b--------------------------------------
g-3-3-3-3-3-4-3-3-3-3-3-9--9--9---4-4-3]
[D-4-4-4-4-4-5-4-4-4-4-4-10-10-10--5-5-4] gtr 1 comes in after "do"
[A-4-4-4-4-4-5-4-4-4-4-4-10-10-10--5-5-4
E-2-2-2-0-2-3-2-0-2-2-2-8--8--8---3-3-2]
looking outside inside...
[e------------------------------------
b------------------------------------
g-3-3-3-3-3-4-3-3-3-3-3-9--9--9---4-4
D-4-4-4-4-4-5-4-4-4-4-4-10-10-10--5-5 } repeat 4x
A-4-4-4-4-4-5-4-4-4-4-4-10-10-10--5-5
E-2-2-2-0-2-3-2-0-2-2-2-8--8--8---3-3]
ohhh, uuuuu, ohhhhhho....
[e------------------0-----
b--------------------0---]
[g-3--------------------3-] here comes in feedback...
[D-4----------------------
A-4----------------------
E-2----------------------]
inside...
[e------------------------
b------------------------]
[g----------------3-------] gtr 1 (let notes ring)
[D-2--------------4-------
A-2--------------4-------
E-0--------------2-------

e-12--------------------12----------------
b---12-----8 times-then ---12----8 times--
g-----12----------------------15----------]
[D-----------------------------------------]gtr 2
[A-----------------------------------------
E-----------------------------------------]
 the thingy at the end..
[e--------------------------------------
b--------------------------------------
g--------------------------------------]
[D--42/4/542/4/54--5-4h5p4-/9-/114-] play with some delay
[A--------------------------------------
E--------------------------------------]
Добавлено: 08.02.2014
Другие материалы по этой песне:

Страница создана 16.05.2012
http://primanota.ru/anathema/looking-outside-inside-chords.htm
Привет, Гость.
Предлагаем пройти революционный курс по гитаре.
Подарок от PrimaNota.Ru, забирай!