PrimaNota.ru - самый крупный в мире бесплатный архив песенных текстов, аккордов, табулатур и нот


Anathema - Feel - аккорды и текст, видео

Регистрация Запомнить меня
Войти через:  Facebook Google Twitter Vk Yandex Mail.ru

Anathema - Feel - аккорды и текст, видео

Печатать
Просмотров: 125
Авторы музыки: Duncan Patterson
Авторы текста: Duncan Patterson
Feel
Anathema
Riff A - Power chords distorted, single notes clean
[E------------------X2-------------------------------------
B-----54-54754--54--------54-75454-754--------54-75454-754
G----5--5-----5---5------5--5-----5---5------5--5-----5---
D-3-----------5-----5-7-----------------7-5--------------
A-3-----------------5-7-----------------7-5--------------
E-1-----------------3-5-----------------5-3--------------

E------------------X2-------------------------------------
B-----54-54-54--54--------54-75454-754--------------------
G----5--5--5--5---5------5--5-----5---5-------------------
D-3-----------5-----5-7-----------------7-5--------------
A-3-----------------5-7-----------------7-5--------------
E-1-----------------3-5-----------------5-3--------------]

Riff B - Clean, volume really variable
[E--------------------
B--------------------
G--7--9109-7-5----5--
D-7------------57----
A5-------------------
E--------------------]

Fill A - Wah, just after 'Think I'm gonna crack'
[E--------------------
B--------------------
G5-------------------
D-------------------
A--------------------
E--------------------]

Riff C - distorted, at the end - fills are semi-harmonics (I think)
[E------Fills--------------
B---X2--1st--2nd--3rd--4th
G5-------3---------3----6-
D5-----------1-----------
A-2-----1----1----1----1-
E--0----------------------]
Добавлено: 19.01.2014
Другие материалы по этой песне:

Страница создана 27.03.2012
http://primanota.ru/anathema/feel-chords.htm
Привет, Гость.
Предлагаем пройти революционный курс по гитаре.
Подарок от PrimaNota.Ru, забирай!