PrimaNota.ru - самый крупный в мире бесплатный архив песенных текстов, аккордов, табулатур и нот


Anathema - Inner Silence - аккорды и текст, видео

Регистрация Запомнить меня
Войти через:  Facebook Google Twitter Vk Yandex Mail.ru

Anathema - Inner Silence - аккорды и текст, видео

Печатать
Просмотров: 248
Авторы музыки: Danny Cavanagh
Авторы текста: Danny Cavanagh
Inner Silence
Anathema
Riff A (clean)
[E-----------------------------------------------------
B0h1-0-------------------0h1-0------------------------
G----0-----------0------2----0-----------0------0----
D------5-4---2--2--2----2------5-4---2--2--2--0------
A-------5--5--0-0--0------------5--5--0-0--0--2-------
E-------3---3--------3----------3---3--------3--3-3---]
The chords in the next part are really hard to pick out, but
here's what I hear. I've done this songsheet style since there's
no rhythm to speak of. These are the versions of the chords I use:
   G5   D5   C5
[E---------------
B---------------
G------7----5---
D-5----7----5---
A-5----5----3---
E-3-------------]
When the silence beckons, And the day draws to a close,
(distortion tacet)                        G5
When the light of your life sighs, And love dies in your
           D5           G5              D5   C5?
eyes, Only then will I realise, What you mean to me.
 G5         D5   C5?      G5          D5   C5?   G5 and enter lead
As far as I can tell, the rest of the song is this same chord pattern,
but with the open 2nd/B string thrown in for effect occasionally.
(I'm especially unsure of the C5s in the pattern.)
Lead (dist)
[E---------------------------------------------
B---------------------------------------------
G7-54--2/4-----5-4-------4/7-542/5-4-------
D-----5----5075----52/5/7-------------5------
A---------------------------------------------
E---------------------------------------------

E---------------------------------------------
B---------------------------------------------
G/5---2/4----------/54-------4/7-42-54---
D----5-----5-2/75-----52/5/7------------5--
A---------------------------------------------
E---------------------------------------------]
                        Repeat
[E--------------------------------]and[----------]
[B--------------------------------]fade[---------]
[G/7-42/5-4-/4/7-42-/5-4--(/5-4-)-------
D------------5---------------5-(-----5)-------
A---------------------------------------------
E---------------------------------------------]
Добавлено: 20.08.2013
Другие материалы по этой песне:

Страница создана 20.04.2012
http://primanota.ru/anathema/inner-silence-chords.htm
Привет, Гость.
Предлагаем пройти революционный курс по гитаре.
Подарок от PrimaNota.Ru, забирай!