PrimaNota.ru - самый крупный в мире бесплатный архив песенных текстов, аккордов, табулатур и нот


Anathema - A Fine Day To Exit - текст песни, таба, бас-таба, видео

Регистрация Запомнить меня
Войти через:  Facebook Google Twitter Vk Yandex Mail.ru

Anathema - A Fine Day To Exit - текст песни, таба, бас-таба, видео

Печатать
Просмотров: 228
A FINE DAY TO EXIT 2001- "A FINE DAY TO EXIT"
=============================================


*   harmonics artificial
/   slide up
\   slide down
h   hammer on
p   pull
~   let ring
rythm is 3/4
2 guitars (tuning)> first D G C F A d one step down
second normal tunning or same as first, but you will need capo to play it easily,
or have big fingers...capo on second fret...

Riff1 almost played through whole song...
clean... played by guitar2 with E tuning-let ring
basically this are chords> Cmi C9(i think) A#
|---------------------------------------------------------------------|
|---------------------------------------------------------------------|
|----0-----0-----0-----0-----0-----0-----0-----0-----0-----0-----0----|
|---1-1---1-1---1-1---1-1---0-0---0-0---0-0---0-0---0-0---0-0---0-0---|
|--3---3-3---3-3---3-3---3-3---3-3---3-3---3-3---3-1---1-1---1-1---1--|
|-3-----3-----3-----3-----3-----3-----3-----3-----3-----3-----3-----3-|

|---------------------------------------------------------------------|
|----------------------------------this main riff---------------------|
|---0-----0-----0-----0-----0-------played almost through ------------|
|--0-0---0-0---0-0---0-0---0-0--------the song------------------------|
|-1---1-3---3-3---3-3---3-3---3---------------------------------------|
|------3-----3-----3-----3--------------------------------------------|

some interlude through Riff1 played by first guitar-clean
|---------------------------------------------------------------------|
|---------------------------------------------------------------------|
|---------------------------------------------------------------------|
|--7-5-3-------7-5-2-----5----5---------------------------------------|
|------------------------3-------8--7---7\5---------------------------|
|---------------------------------------------------------------------|

Riff2 is played by both guitars-light dist
there are less notes or chords written down here, cause i don't like to write it
down all, to much work...
g2 Cmi				    C9
|--3---3-3-3-3--3-3-3-3--3-3-3-3--3-3-3-3--3-3-3-3--3-3-3-3--------|
|--4---4-4-4-4--4-4-4-4--4-4-4-4--3-3-3-3--3-3-3-3--3-3-3-3--------|
|--5---5-5-5-5--5-5-5-5--5-5-5-5--5-5-5-5--5-5-5-5--5-5-5-5--------|
|--5---5-5-5-5--5-5-5-5--5-5-5-5--5-5-5-5--5-5-5-5--5-5-5-5--------|
|--3---3-3-3-3--3-3-3-3--3-3-3-3--3-3-3-3--3-3-3-3--3-3-3-3--------|
|------------------------------------------------------------------|
g1 Cmi or played on 5th fret better sound
|--1--1-1-1-1--1-1-1-1--1-1-1-1--0-0-0-0--0-0-0-0--0-0-0-0---------|
|--3--3-3-3-3--3-3-3-3--3-3-3-3--3-3-3-3--3-3-3-3--3-3-3-3---------|
|--2--2-2-2-2--2-2-2-2--2-2-2-2--2-2-2-2--2-2-2-2--2-2-2-2---------|
|--0--0-0-0-0--0-0-0-0--0-0-0-0--0-0-0-0--0-0-0-0--0-0-0-0---------|
|------------------------------------------------------------------|
|------------------------------------------------------------------|

continuing
g2 A#					C9
|--1-1-1-1--1-1-1-1--1-1-1-1--3-3-3-3--3-3-3-3--3-3-3-3---------------|
|--3-3-3-3--3-3-3-3--3-3-3-3--3-3-3-3--3-3-3-3--3-3-3-3---------------|
|--3-3-3-3--3-3-3-3--3-3-3-3--5-5-5-5--5-5-5-5--5-5-5-5---------------|
|--3-3-3-3--3-3-3-3--3-3-3-3--5-5-5-5--5-5-5-5--5-5-5-5---------------|
|--1-1-1-1--1-1-1-1--1-1-1-1--3-3-3-3--3-3-3-3--3-3-3-3---------------|
|---------------------------------------------------------------------|
g1
|--0-0-0-0--0-0-0-0--0-0-0-0--0-0-0-0--0-0-0-0--0-0-0-0---------------|
|--1-1-1-1--1-1-1-1--1-1-1-1--3-3-3-3--3-3-3-3--3-3-3-3---------------|
|--0-0-0-0--0-0-0-0--0-0-0-0--2-2-2-2--2-2-2-2--2-2-2-2---------------|
|--2-2-2-2--2-2-2-2--2-2-2-2--0-0-0-0--0-0-0-0--0-0-0-0---------------|
|--3-3-3-3--3-3-3-3--3-3-3-3------------------------------------------|
|---------------------------------------------------------------------|

Riff3
played by g1 with D tunning
all of these tones are harmonics artificial played octave higher,
5th fret is played on 17th fret
|-----5-----5-----5-----5-----5-----5-----5-----5-----5-----5-----5---|
|----6-6---6-6---6-6---6-6---5-5---5-5---5-5---5-5---5-5---5-5---5-5--|
|---7---7-7---7-7---7-7---7-7---7-7---7-7---7-7---7-5---5-5---5-5---5-|
|--7-----7-----7-----7-----7-----7-----7-----7-----7-----7-----7------|
|---------------------------------------------------------------------|
|---------------------------------------------------------------------|
   ******************************************************************
|-----5-----5-----5-----5-----5-----5---------------------------------|
|----5-5---5-5---5-5---5-5---5-5---6-6--------------------------------|
|---5---5-7---7-7---7-7---7-7---7-7---5-etc...------------------------|
|--7-----7-----7-----7-----7-----7------------------------------------|
|---------------------------------------------------------------------|
|---------------------------------------------------------------------|
   ***************************************
Riff2a-is played by both guitars, g2 is playing same as on Riff2, but
g1 is playing this>
|--10------------------12--------------8------------------------------|
|--10-in3/4------------10--------------8------------------------------|
|--10--rythm-----------9---------------9------------------------------|
|--0-------------------0---------------10-------and again C9----------|
|--Cmi-----------------C9--------------A#-----------------------------|
|---------------------------------------------------------------------|

at the end... there is some slide up and down through reverb and echo,and also
some releases but their sound very keyboardly...:)

Добавлено: 06.07.2013
Другие материалы по этой песне:

Страница создана 22.03.2012
http://primanota.ru/anathema/a-fine-day-to-exit-chords.htm
Привет, Гость.
Предлагаем пройти революционный курс по гитаре.
Подарок от PrimaNota.Ru, забирай!