PrimaNota.ru - самый крупный в мире бесплатный архив песенных текстов, аккордов, табулатур и нот


Anathema - Alternative 4 - аккорды и текст, видео

Регистрация Запомнить меня
Войти через:  Facebook Google Twitter Vk Yandex Mail.ru

Anathema - Alternative 4 - аккорды и текст, видео

Печатать
Просмотров: 175
Авторы музыки: Duncan Patterson
Авторы текста: Duncan Patterson
Alternative 4
Anathema
Bass Riff A
[G-7-7-7-8--8--8--8--8-7-7-7-7-12--12--11--11--
D-0-0-0-10-10-10-10-0-0-0-0-0--10--10--10----
A---------------------------------------------
E---------------------------------------------]
Guitar Riff B
[E---------------------
B---------------------
G7-7------5-5---------
D7-7------5-5---------
A5-------3-3---------
E---------------------]
Bass Riff B
[G------------------------------------------
D-----------------------------------5454---
A5-------3-3----3/153--5-5----3-3--------
E------------------------------------------]
Several times during the last part of the song the guitar hits
[E----------
B----------
G7---------
D7---------
A5---------
E----------]
At the end the bass plays
[G----------------
D-0-0-0-0-0-0-0-
A----------------
E----------------]
Just before the fade the guitar plays
[E----------
B----------
G----------
D-5-5454---
A-3-------
E----------]
Добавлено: 27.08.2013
Другие материалы по этой песне:

Страница создана 17.04.2012
http://primanota.ru/anathema/alternative-4-chords.htm
Привет, Гость.
Предлагаем пройти революционный курс по гитаре.
Подарок от PrimaNota.Ru, забирай!