PrimaNota.ru - самый крупный в мире бесплатный архив песенных текстов, аккордов, табулатур и нот


Amon Amarth - Tattered Banners And Bloody Flags - текст песни, таба, видео

Регистрация Запомнить меня
Войти через:  Facebook Google Twitter Vk Yandex Mail.ru

Amon Amarth - Tattered Banners And Bloody Flags - текст песни, таба, видео

Печатать
Просмотров: 297
Авторы: Ted Lundström, Johan Söderberg, Olavi Mikkonen, Fredrik Andersson, Johan Hegg

Artist: Amon Amarth 
Album: Twilight Of The Thunder God
Year: 2008
Title: Tattered Banners And Bloody Flags 

Tuning: Standard (E A D G B E)

Main Riff 
E |------------------------------------------------------------------| 
B |------------------------------------------------------------------| 
G |------------------------------------------------------------------| 
D |------------------------------------------------------------------| 
A |--999--777--101010--999--999--777---------------------------------| 
E |-----------------------------------555--999-----------------------| 

E |------------------------------------------------------------------| 
B |------------------------------------------------------------------| 
G |------------------------------------------------------------------| 
D |------------------------------------------------------------------| x2 
A |--999--777--101010--999--999--777---------------------------------| 
E |-----------------------------------5-5-5--9-9-9-------------------| 

(This part is speedpicked) 
E |------------------------------------------------------------------| 
B |------------------------------------------------------------------| 
G |------------------------------------------------------------------| 
D |------------------------------------------------------------------| x2 
A |--7--9--7--9--7--9--9--10--9--10/12--7--9--7--9--5--7--5\4--------| 
E |------------------------------------------------------------5-----| 

back to main riff 
E |------------------------------------------------------------------| 
B |------------------------------------------------------------------| 
G |------------------------------------------------------------------| 
D |------------------------------------------------------------------| 
A |--999--777--101010--999--999--777---------------------------------| 
E |-----------------------------------555--999-----------------------| 

E |------------------------------------------------------------------| 
B |------------------------------------------------------------------| 
G |------------------------------------------------------------------| 
D |------------------------------------------------------------------| 
A |--999--777--101010--999--999--777---------------------------------| 
E |-----------------------------------5-5-5--9-9-9-------------------| 

E |------------------------------------------------------------------| 
B |------------------------------------------------------------------| 
G |------------------------------------------------------------------| 
D |--999--777--101010--999--999--777---------------------------------| 
A |------------------------------------------------------------------| 
E |-----------------------------------555--999-----------------------| 

E |------------------------------------------------------------------| 
B |------------------------------------------------------------------| 
G |------------------------------------------------------------------| 
D |--999--777--101010--999--999--777---------------------------------| 
A |------------------------------------------------------------------| 
E |-----------------------------------5-5-5--9-9-9-------------------| 

(speed picked) 
E |------------------------------------------------------------------| 
B |------------------------------------------------------------------| 
G |------------------------------------------------------------------| 
D |------------------------------------------------------------------| x4 
A |--7--9--7--9--7--9--9--10--9--10/12--7--9--7--9--5--7--5\4--------| 
E |------------------------------------------------------------5-----| 

Main Riff again 
E |------------------------------------------------------------------| 
B |------------------------------------------------------------------| 
G |------------------------------------------------------------------| 
D |------------------------------------------------------------------| 
A |--999--777--101010--999--999--777---------------------------------| 
E |-----------------------------------555--999-----------------------| 

E |------------------------------------------------------------------| 
B |------------------------------------------------------------------| 
G |------------------------------------------------------------------| 
D |--999--777--101010--999--999--777---------------------------------| 
A |------------------------------------------------------------------| 
E |-----------------------------------5-5-5--9-9-9-------------------| 

E |------------------------------------------------------------------| 
B |------------------------------------------------------------------| 
G |------------------------------------------------------------------| 
D |--999--777--101010--999--999--777---------------------------------| 
A |------------------------------------------------------------------| 
E |-----------------------------------555--999-----------------------| 

E |------------------------------------------------------------------| 
B |------------------------------------------------------------------| 
G |------------------------------------------------------------------| 
D |--999--777--101010--999--999--777---------------------------------| 
A |------------------------------------------------------------------| 
E |-----------------------------------5-5-5--9-9-9-------------------| 

(this part is speedpicked aswell) 

E |------------------------------------------------------| 
B |------------------------------------------------------| 
G |------------------------------------------------------| 
D |--9~-9--7--5--7/9-9~-9-7-5--7--4-7-5-4-5--2--4--0-----| x4 
A |------------------------------------------------------| 
E |------------------------------------------------------| 

E |-------------------------------------------| 
B |--7-7--5~--8-8--7~--7-7--5---3--5--3--2~---| 
G |-------------------------------------------| 
D |-------------------------------------------| x10 
A |-------------------------------------------| 
E |-------------------------------------------| 

E |------------------------------------------------------------------| 
B |------------------------------------------------------------------| 
G |------------------------------------------------------------------| 
D |------------------------------------------------------------------| 
A |--999--777--101010--999--999--777---------------------------------| 
E |-----------------------------------555--999-----------------------| 

E |------------------------------------------------------------------| 
B |------------------------------------------------------------------| 
G |------------------------------------------------------------------| 
D |------------------------------------------------------------------| x2 
A |--999--777--101010--999--999--777---------------------------------| 
E |-----------------------------------5-5-5--9-9-9-------------------| 

(speed picked) 
E |------------------------------------------------------| 
B |------------------------------------------------------| 
G |------------------------------------------------------| 
D |--9~-9--7--5--7/9-9~-9-7-5--7--4-7-5-4-5--2--4--0-----| x3 
A |------------------------------------------------------| 
E |------------------------------------------------------| 

E |------------------------------------------------------------| 
B |------------------------------------------------------------| 
G |------------------------------------------------------------| 
D |--9~-9--7--5--7/9-9~-9-7-5--7--4-7-5-4-5---2---4---0--0h2---| 
A |------------------------------------------------------------| 
E |------------------------------------------------------------|



Tablature Legend
----------------
 h   - hammer-on
 p   - pull-off
 b   - bend
 pb  - pre-bend
 r   - bend release (if no number after the r, then release immediately)
 /\  - slide into or out of (from/to "nowhere")
 s   - legato slide
 S   - shift slide
  - natural harmonic
[n]  - artificial harmonic
n(n) - tapped harmonic
 ~   - vibrato
 tr  - trill
 T   - tap
 TP  - trem. picking
 PM  - palm muting
\n/  - tremolo bar dip; n = amount to dip
 \n  - tremolo bar down
 n/  - tremolo bar up
/n\  - tremolo bar inverted dip
 =   - hold bend; also acts as connecting device for hammers/pulls
 <>  - volume swell (louder/softer)
 x   - on rhythm slash represents muted slash
 o   - on rhythm slash represents single note slash
Добавлено: 15.07.2012
Другие материалы по этой песне:

Страница создана 27.02.2012
http://primanota.ru/amon-amarth/tattered-banners-and-bloody-flags-chords.htm
Привет, Гость.
Предлагаем пройти революционный курс по гитаре.
Подарок от PrimaNota.Ru, забирай!