PrimaNota.ru - самый крупный в мире бесплатный архив песенных текстов, аккордов, табулатур и нот


Amon Amarth - Across The Rainbow - таба, видео

Регистрация Запомнить меня
Войти через:  Facebook Google Twitter Vk Yandex Mail.ru

Amon Amarth - Across The Rainbow - таба, видео

Печатать
Просмотров: 140
Drop B tuning
Across the Rainbow Bridge by Amon Amarth

Guitar 1-
|---------------------------------------------------|
|---------------------------------------------------|
|-12~--15-14-12-14-12---15-14-12--15-14-12-14-12-14-|
|---------------------13--------12------------------|
|---------------------------------------------------|
|---------------------------------------------------|

|---------------------------------------------------------------------|
|---------------------------------------------------------------------|
|-12-14-15-17-19~---15-14-12-14-12-----------------15-14-12-14-12-14\-|
|---------------------------------13~--12-13-12~----------------------|
|---------------------------------------------------------------------|
|---------------------------------------------------------------------|


|-----------------------------------------------| x4
|-----------------------------------------------|
|-----------------------------------------------|
|-12-12-12-12--7-7-7-7-7-7-7--8-8-8-8--5-5-5-5--|
|-10-10-10-10--8-8-8-8-8-8-8--6-6-6-6--3-3-3-3--|
|-----------------------------------------------|

This is where Johan starts singing
|----------------------------------------------------|
|----------------------------------------------------|
|-12~--15-14-12-14-12--------------15-14-12-14-12-14-|
|--------------------13~---12-13-12------------------|
|----------------------------------------------------|
|----------------------------------------------------|

|----------------------------------------------|
|----------------------------------------------|
|-12-14-15-17-19~--15-14-12-14-12--------------|
|--------------------------------13--12-13-12\-|
|----------------------------------------------|
|----------------------------------------------|


SET ME FREEEEEEE....
|-----------------------------------------------| x4
|-----------------------------------------------|
|-----------------------------------------------|
|-12-12-12-12--7-7-7-7-7-7-7--8-8-8-8--5-5-5-5--|
|-10-10-10-10--8-8-8-8-8-8-8--6-6-6-6--3-3-3-3--|
|-----------------------------------------------|

These notes are played at a constant speed of about 6 notes a second
Figure out timing of the notes by yourself.
|---------------------------|
|---------------------------|
|---------------------------|
|---------------------------|
|------------8--10-8-7------|
|-10-8-10-12-----------10-8-|
|---------------------------|


|-10~--18-17-15-11--18-17-15-10---18-17-15-11---18-17-15-15--|
|------------------------------------------------------------|
|------------------------------------------------------------|
|------------------------------------------------------------|
|------------------------------------------------------------|
|------------------------------------------------------------|


|----------------------------------------------------|
|----------------------------------------------------|
|----------------------------------------------------|
|----------------------------------------------------|
|-555---5-3-3--555---5-3-3--666---6-5-3-666----6-5-3-|   Play this Riff for
|----5-5-5-5-5----5-5-5-5-5----5-5-5-5-5----5-5-5-5--|   the rest of the song,
                                                       until it fades out.

email me at blackwood_evan@yahoo.com if you need to tell me anything.

Keep it metal
Добавлено: 30.06.2012
Другие материалы по этой песне:

Страница создана 22.05.2012
http://primanota.ru/amon-amarth/across-the-rainbow-chords.htm
Привет, Гость.
Предлагаем пройти революционный курс по гитаре.
Подарок от PrimaNota.Ru, забирай!